» » »

Don T Leave Me Tabs (ver.3)

Artists:  A B C D E F G H I J K L M N O P Q R S T U V W X Y Z # 

Don T Leave Me Tabs (ver.3)

*Blink 182*
Rating:
0/5 (0 votes)

Hard to play? Try these video lessons and learn fast.
                Intro									                x2
------------------------------7------------------7--7-7---9--9-9---||
-----7-7-7-7---7----7-7-7-7---7----9-9-9-9---9---7--7-7---9--9-9---||
-----7-7-7-7---7----7-7-7-7---5----9-9-9-9---9---5--5-5---7--7-7---||
-----5-5-5-5---5----5-5-5-5--------7-7-7-7---7---------------------||
 P.M. - - - |     P.M.- - -|     P.M.- - -|

Verse
-------||					Don’t leave me	  I’ll be fine
-------||					all alone.		  it’s not the first.
-------||(let ring through		Just drop me	  Just like last time
--7----||  whole verse)		off at home.	  but a little worse and...
--7----||
--5----||

Chorus
-----------------------------------------------||
-----------------------------------------------||
-----------------------------7--7-7---9--9-9---||She said that I’m not the
-----7-----7--7-7---9--9-9---7--7-7---9--9-9---||one that she thinks about and
-----7-----7--7-7---9--9-9---5--5-5---7--7-7---||
-----5-----5--5-5---7--7-7---------------------||
P.M.- - x8

-----------------------------------------------||
-----------------------------------------------||
--------------------7--7-7---9-----9-----------||She said it stopped being fun
--7--7-7---9--9-9---7--7-7---9-----9-----------||I just bring her down.
--7--7-7---9--9-9---5--5-5---7-----7-----------||
--5--5-5---7--7-7------------------------------||
					      P.M.- - x6

-----------------------------------------------||
-----------------------------------------------||
--------------------7--7-7---9--9-9------------||I said don’t let your future
--7--7-7---9--9-9---7--7-7---9--9-9------------||be destroyed by my past.
--7--7-7---9--9-9---5--5-5---7--7-7------------||
--5--5-5---7--7-7------------------------------||

-----------------------------------------------||
-----------------------------------------------||
--------------------7--7-7---7--7-7------------||She said don’t let my door
--7--7-7---9--9-9---7--7-7---7--7-7------------||hit your ass.
--7--7-7---9--9-9---5--5-5---5--5-5------------||
--5--5-5---7--7-7------------------------------||

Repeat Intro
2nd Verse-     One more chance			I’ll miss enough
		    I’ll try this time		pretend to care
		    I’ll give you yours		go on ahead
		    I won’t take mine.		I’ll meet you there and...

Repeat Chorus

(Bass Solo)- Let’s try this one more time with feeling......
--------||				  ---------------------||
--------||				  ---------------------||
--------||			  OR	  ---------------------||
--7-----||hold through	  --7------------------||
--7-----|| bass solo		  --7-----(softly)-7-5--||
--5-----||				  --5------------------||

Repeat Chorus


Outro

----------------------------------||
----------------------------------||Don’t leave me all alone
---------------------------7------||just drop me off at home
---7-----------------------7------||and i’ll be fine.
---7-----------------------5--7---||
---5--------------------------5---||    
(strum the 2nd chord on “home”)
            
Hard to play? Try these video lessons and learn fast. | Correct




comments powered by Disqus
↑ Back to top | Tablatures and chords are parodies/interpretations of the original songs. You may use it for private study, scholarship, research or language learning purposes only