» » »

*Blink 182*, Dogs Eating Dogs Tabs (ver.5)

Artists:  A B C D E F G H I J K L M N O P Q R S T U V W X Y Z # 

Dogs Eating Dogs Tabs (ver.5)

*Blink 182* Tabs
Rating:
0/5 (0 votes)
Dogs Eating Dogs lessons Tabs too difficult? Try these video lessons and learn fast
                blink 182 - dogs eating dogs guitar tab by
41monique182.

Iv seen a few tabs where the bridge is wrong, but im sure I've got it right and
this tab is probably 99% correct because it sounds right This is my first tab so be gentle :)

~ let ring
* palm mute

INTRO
e|--------------------------------------------------------------|
b|-5-4-5-7-5-4-55555555---------5-4-5-7-5-4-55555555------------|
g|-2-2-2-7-2-2-55555555---------2-2-2-7-2-2-55555555------------|  X2
d|-0-0-0-0-0-0-33333333-5555555-0-0-0-0-0-0-33333333------------|
a|----------------------5555555----------------------22222222---|
E|----------------------3333333----------------------00000000---|

verse1
e---------------------------|
b---------------------------|
g------55555555-------------|
d-5~~--55555555-55555555----| play once
a-5~~--33333333-55555555----|
E-7~~-----------33333333----|
"iv gotta feeling, iv gotta feeling......"

e-----------------------------------------|
b-----------------------------------------|
g--------------------55555555-------------|
d-555555555555555~~--55555555-55555555----|   x3
a-555555555555555----33333333-55555555----|
E-777777777777777-------------33333333----|
"we will always starve and devour"

pre chorus
e--------------------------------------|
b--------------------------------------|
d--------------------------------------|
g------------------55555555------------|
a-3333333333333333-33333333-55555555---|
E-1111111111111111----------33333333---|  x2
************************************
"dogs eating dogs"

chorus
e-----------------------------------------|
b-----------------------------------------|
d-5~~-3~~---------------------------------|
g-5~~-3~~55555555-55555555-33333333-------|      x2
a-3~~-1~~55555555-55555555-33333333-------|
E--------77777777-33333333-11111111-------|
"im the last.....to the bones to the knees"

repeat intro
e|--------------------------------------------------------------|
b|-5-4-5-7-5-4-55555555---------5-4-5-7-5-4-55555555------------|
g|-2-2-2-7-2-2-55555555---------2-2-2-7-2-2-55555555------------|  X1
d|-0-0-0-0-0-0-33333333-5555555-0-0-0-0-0-0-33333333------------|
a|----------------------5555555----------------------22222222---|
E|----------------------3333333----------------------00000000---|

verse
e-----------------------------------------|
b-----------------------------------------|
g--------------------55555555-------------|
d-555555555555555~~--55555555-55555555----|   x2
a-555555555555555----33333333-55555555----|
E-777777777777777-------------33333333----|
"are only hope is burning down the chapel...."

pre chorus
e------------------------------------------|
b------------------------------------------|
d------------------------------------------|
g------------------55555555----------------|       downwards palm muting
a-3333333333333333-33333333-55555555-------|
E-1111111111111111----------33333333-------|  x2
************************************
"dogs eating dogs"

chorus
e-----------------------------------------|
b-----------------------------------------|
d-5~~-3~~---------------------------------|
g-5~~-3~~55555555-55555555-33333333-------|      x2
a-3~~-1~~55555555-55555555-33333333-------|
E--------77777777-33333333-11111111-------|
"im the last.....to the bones to the knees"

bridge
e--------------------------------------|
b--------------------------------------|
d-10~~~9~~~10-----10~~~9~~~7~5~4~5-----|    x2
g--------------------------------------|
a--------------------------------------|
E--------------------------------------|

e------------------------------|
b------------------------------|
d--10~~~~9~~~~~7~5~4~5---------|    x3
g------------------------------|
a------------------------------|
E------------------------------|

pre chorus
play first note without palm muting
e--------------------------------------|
b--------------------------------------|
d--------------------------------------|
g------------------55555555------------|
a-3333333333333333-33333333-55555555---|
E-1111111111111111----------33333333---|  x2
************************************
"dogs eating dogs"


chorus
e-----------------------------------------|
b-----------------------------------------|
d-5~~-3~~---------------------------------|
g-5~~-3~~55555555-55555555-33333333-------|      x2
a-3~~-1~~55555555-55555555-33333333-------|
E--------77777777-33333333-11111111-------|
"im the last.....to the bones to the knees"

INTRO
e|--------------------------------------------------------------|
b|-5-4-5-7-5-4-55555555---------5-4-5-7-5-4-55555555------------|
g|-2-2-2-7-2-2-55555555---------2-2-2-7-2-2-55555555------------|  X2
d|-0-0-0-0-0-0-33333333-5555555-0-0-0-0-0-0-33333333------------|
a|----------------------5555555----------------------22222222---|
E|----------------------3333333----------------------00000000---|

end on -----
       ----- and let ring
       ------|
       ---2--|
       ---2--|
       ---0--|

so thats it. Im still trying to figure out guitar 2 in the bridge.
oh and I might of posted this tab twice by accident. please rate :)
            

comments powered by Disqus
↑ Back to top | *Blink 182* Tabs for Dogs Eating Dogs. Lyrics for acoustic guitar and electric guitar. Tablatures and chords are parodies/interpretations of the original songs. You may use it for private study, scholarship, research or language learning purposes only