» » »

*Blink 182*, Does My Breath Smell Tabs (ver.2)

Artists:  A B C D E F G H I J K L M N O P Q R S T U V W X Y Z # 

Does My Breath Smell Tabs (ver.2)

*Blink 182* Tabs
Rating:
0/5 (0 votes)
Does My Breath Smell lessons Tabs too difficult? Try these video lessons and learn fast
                intro
e |----------------------------------------
B |----------------------------------------
G |------5---5----------5--5--5--5--------
D |------5---5---3------5--5--5--3--5---
A |------3---2---3------2--3--2--3--5---
E |--------------1---------------1--3
          p.m
Second intro
e |------------------------------------
B |------------------------------------
G |---5--------------------------------
D |---3---2-3-2-2-0----3---2-3-2-2-0---
A |---3----------------1---------------
E |--------------------1---------------
(cont.)
e |------------------------------------
B |------------------------------------
G |---5--------------------------------
D |---3---2-3-2-2-0----5---2-3-2-2-0---
A |---3----------------3---------------
E |--------------------3---------------



VERSES:What is this that I am feeling...
e|---------------------------------|
B|---------------------------------|
G|--5---5---------5---5---5--------|
D|--5---5-----3---5---5---5---3---5|
A|--3---2-----3---2---3---2---3---5|
E|------------1---------------1---3|

CHORUS:No worse a time...
e|------------------------------------|
B|------------------------------------|
G|-----------5---2-----------5--------|
D|---3---5---5---2---3---5---5--------|
A|---3---5---3---0---3---5---3--------|
E|---1---3-----------1---3------------|


Second intro again

Part after drum roll with little solo
e|----------------------------------------------------------------------------|
B|------------------------------------------------------------------------7-6-|
G|-5-----------------5-6-5-5-5-5-5-5-5-5-6-5-5-5-5-5-5-5-5------5-4-----------|
D|-5---3---5---3--------------------------------------------------------------|
A|-3---3---5---3--------------------------------------------------------------|
E|-----1---3---1--------------------------------------------------------------|

e|------------------------------------------------------|
B|------5-6-5------5-6-5-------5-6-5--------5-6-5-------|
G|--5---------5------------5--5---------5-------------5-|
D|--5-------------3------------5-------------5----------|
A|--3-------------3------------3-------------5----------|
E|----------------1--------------------------3----------|





Who makes up all the rules about those girls I want? 

Who tells them all to laugh? 

Who tells them all to talk about me? 

And I'm not sure what my purpose is for being here 

Why do they, why do they

Always kick me in the groin when I come near 

And I'm not complaining it just hurts after a bit. 





I don't know what I'm feeling 

I'm just so sick of seeing 
                 
All those dumb, lame, and retarded broads 

Who often just sit kick back 

As I am not so relaxed
   
I often wonder why they act so odd 

           
Because no worse a time 
          
When it's just your time to 

Think you should make your move 
                      
It doesn't work as your just a jerk with no excuse 






What about that situation 

All night procrastination 

Taking to the point when you lead her to her door 

There is nothing left there to say

I guess you best be on your way 

But before you go you got to do that chore 

   
no worse a time 
          
When it's just your time to 

Think you should make your move 
  
It doesn't work as your just a jerk with no excuse 








Please won't you buy in 
           
I'm always tryin' 
          
I keep on tryin' 

There's only so much pride that I can lose 
         
hope that when you see me 
              
You see right through me 
             
Come on now, honestly 

I'm so sick of endin' up without a clue
            
Submit corrections

comments powered by Disqus
↑ Back to top | *Blink 182* Tabs for Does My Breath Smell. Lyrics for acoustic guitar and electric guitar. Tablatures and chords are parodies/interpretations of the original songs. You may use it for private study, scholarship, research or language learning purposes only