» » »

*Blink 182*, Depends Tabs (ver.3)

Artists:  A B C D E F G H I J K L M N O P Q R S T U V W X Y Z # 

Depends Tabs (ver.3)

*Blink 182* Tabs
 Rating:
4/5 (4 votes)
Depends lessons Tabs too difficult? Try these video lessons and learn fast
                Standard Tuning: eadgbe

Verse 1:
e-------------------------------------|
b-------------------------------------|
g-------------------------------------|
d-4-4-4-4---7-7-7-7--5-5-5-5-5-5-5-5--|
a--5-5-5-5--7-7-7-7--5-5-5-5-5-5-5-5--|
e-----------5-5-5-5--3-3-3-3-3-3-3-3--|

e--------------------------------------|
b--------------------------------------|
g--------------------------------------|
d-4-4-4-4---7-7-7-7--5-5-5-5--7-7-7-7--|
a--5-5-5-5--7-7-7-7--5-5-5-5--7-7-7-7--|
e-----------5-5-5-5--3-3-3-3--5-5-5-5--|

e-------------------------------------|
b-------------------------------------|
g-------------------------------------|
d-4-4-4-4---7-7-7-7--5-5-5-5-5-5-5-5--|
a--5-5-5-5--7-7-7-7--5-5-5-5-5-5-5-5--|
e-----------5-5-5-5--3-3-3-3-3-3-3-3--|

e--------------------------------------|
b--------------------------------------|
g--------------------------------------|
d-4-4-4-4---7-7-7-7--5-5-5-5--7-7-7-7--|
a--5-5-5-5--7-7-7-7--5-5-5-5--7-7-7-7--|
e-----------5-5-5-5--3-3-3-3--5-5-5-5--|

Chorus:
e----------------------------|
b----------------------------|
g-7-7------------------------|
d-7-7--5-5--7-7-7-7-7-7-7-7--|
a-5-5--5-5--7-7-7-7-7-7-7-7--|
e------3-3--5-5-5-5-5-5-5-5--|

e-------------------------------|
b-------------------------------|
g-7-7---------------------------|
d-7-7--555-5-5-5-5-5-5-5-5-5-5--|
a-5-5--555-5-5-5-5-5-5-5-5-5-5--|
e------333-3-3-3-3-3-3-3-3-3-3--|

e----------------------------|
b----------------------------|
g-7-7------------------------|
d-7-7--555--7-7-7-7-7-7-7-7--|
a-5-5--555--7-7-7-7-7-7-7-7--|
e------333--5-5-5-5-5-5-5-5--|

e-------------------------------|
b-------------------------------|
g-7-7---------------------------|
d-7-7--555-5-5-5-5-5-5-5-5-5-5--|
a-5-5--555-5-5-5-5-5-5-5-5-5-5--|
e------333-3-3-3-3-3-3-3-3-3-3--|

Bit After Chorus:
e--------------------------------------|
b--------------------------------------|
g----------7-77-7-7--------------------|
d-7-7-777--7-77-7-7--7-7-777--5-5-555--|
a-7-7-777--5-55-5-5--7-7-777--5-5-555--|
e-5-5-555------------5-5-555--3-3-333--|

e------------------------------------------------------|
b------------------------------------------------------|
g----------7-77-7-7------------------------------------|
d-7-7-777--7-77-7-7--5-5-555-5-5-555--7-7-777-7-7-777--|
a-7-7-777--5-55-5-5--5-5-555-5-5-555--7-7-777-7-7-777--|
e-5-5-555------------3-3-333-3-3-333--5-5-555-5-5-555--|

Verse 2:
e-------------------------------------|
b-------------------------------------|
g-------------------------------------|
d-4-4-4-4---7-7-7-7--5-5-5-5-5-5-5-5--|
a--5-5-5-5--7-7-7-7--5-5-5-5-5-5-5-5--|
e-----------5-5-5-5--3-3-3-3-3-3-3-3--|

e--------------------------------------|
b--------------------------------------|
g--------------------------------------|
d-4-4-4-4---7-7-7-7--5-5-5-5--7-7-7-7--|
a--5-5-5-5--7-7-7-7--5-5-5-5--7-7-7-7--|
e-----------5-5-5-5--3-3-3-3--5-5-5-5--|

e-------------------------------------|
b-------------------------------------|
g-------------------------------------|
d-4-4-4-4---7-7-7-7--5-5-5-5-5-5-5-5--|
a--5-5-5-5--7-7-7-7--5-5-5-5-5-5-5-5--|
e-----------5-5-5-5--3-3-3-3-3-3-3-3--|

e--------------------------------------|
b--------------------------------------|
g--------------------------------------|
d-4-4-4-4---7-7-7-7--5-5-5-5--7-7-7-7--|
a--5-5-5-5--7-7-7-7--5-5-5-5--7-7-7-7--|
e-----------5-5-5-5--3-3-3-3--5-5-5-5--|

Chorus:
e----------------------------|
b----------------------------|
g-7-7------------------------|
d-7-7--5-5--7-7-7-7-7-7-7-7--|
a-5-5--5-5--7-7-7-7-7-7-7-7--|
e------3-3--5-5-5-5-5-5-5-5--|

e-------------------------------|
b-------------------------------|
g-7-7---------------------------|
d-7-7--555-5-5-5-5-5-5-5-5-5-5--|
a-5-5--555-5-5-5-5-5-5-5-5-5-5--|
e------333-3-3-3-3-3-3-3-3-3-3--|

e----------------------------|
b----------------------------|
g-7-7------------------------|
d-7-7--555--7-7-7-7-7-7-7-7--|
a-5-5--555--7-7-7-7-7-7-7-7--|
e------333--5-5-5-5-5-5-5-5--|

e-------------------------------|
b-------------------------------|
g-7-7---------------------------|
d-7-7--555-5-5-5-5-5-5-5-5-5-5--|
a-5-5--555-5-5-5-5-5-5-5-5-5-5--|
e------333-3-3-3-3-3-3-3-3-3-3--|

Bit After Chorus:
e--------------------------------------|
b--------------------------------------|
g----------7-77-7-7--------------------|
d-7-7-777--7-77-7-7--7-7-777--5-5-555--|
a-7-7-777--5-55-5-5--7-7-777--5-5-555--|
e-5-5-555------------5-5-555--3-3-333--|

e------------------------------------------------------|
b------------------------------------------------------|
g----------7-77-7-7------------------------------------|
d-7-7-777--7-77-7-7--5-5-555-5-5-555--7-7-777-7-7-777--|
a-7-7-777--5-55-5-5--5-5-555-5-5-555--7-7-777-7-7-777--|
e-5-5-555------------3-3-333-3-3-333--5-5-555-5-5-555--|

That's the whole song. Very easy to play. I thinks it all correct - except some of the 
Anyway, have fun!!!
            
Submit corrections

comments powered by Disqus
↑ Back to top | *Blink 182* Tabs for Depends. Lyrics for acoustic guitar and electric guitar. Tablatures and chords are parodies/interpretations of the original songs. You may use it for private study, scholarship, research or language learning purposes only