» » »

*Blink 182*, Degenerate Tabs (ver.1)

Artists:  A B C D E F G H I J K L M N O P Q R S T U V W X Y Z # 

Degenerate Tabs (ver.1)

*Blink 182* Tabs
 Rating:
4/5 (4 votes)
Degenerate lessons Tabs too difficult? Try these video lessons and learn fast
                                                         Let Ring
|-------------------|---------------|    |-----------------------|------------------|
|-------------------|---------------|    |-----------------------|------------------|
|-------------------|---------------|    |-----3-----------2-----|------3-------2---|
|-3--x--x--3--x--x--|--3----3--x--x-| x4 |---------3-------------|----------------3-|
|-1--x--x--3--x--x--|--5----3--x--x-|    |-1-----------3-------0-|-5-------3--------|
|-------------------|---------------|    |-----------------------|------------------|

|---------------|---------------|---------------|----------------------|
|---------------|---------------|---------------|----------------------|
|-3-3-3-3-3-3-3-|---------------|-8-8-8-8-8-8-8-|-10-10-10-10-10-10----|
|-3-3-3-3-3-3-3-|-3-3-3-3-3-3---|-8-8-8-8-8-8-8-|-10-10-10-10-10-10----|
|-1-1-1-1-1-1-1-|-3-3-3-3-3-3---|-6-6-6-6-6-6-6-|--8--8--8--8--8--8--0-|
|---------------|-1-1-1-1-1-1-0-|---------------|----------------------|

[SOLO]
|-------------------|-------------------------|-------------------------|
|-------------------|-------------------------|-------------------------|
|--3--3--2--2--2--2-|-------------------------|--3--3--3--3--2--2--2--2-|
|-------------------|--5--5--5--3--3--3--3--3-|-------------------------|
|-------------------|-------------------------|-------------------------|
|-------------------|-------------------------|-------------------------|

|-----------------|--------------------------|-------------------------|
|-----------------|--------------------------|-------------------------|
|--5--3--2--3--5--|--3--3--3--3--2--2--2--2--|-------------------------|
|-----------------|--------------------------|--5--5--5--3--3--3--3--3-|
|-----------------|--------------------------|-------------------------|
|-----------------|--------------------------|-------------------------|

|--------------------------|--------------------|
|--------------------------|--------------------|
|--3--3--3--3--2--2--2--2--|--5--3--2--3--5-\-3-|
|--------------------------|--------------------|
|--------------------------|--------------------|
|--------------------------|--------------------|

2nd time around:

|-----------------|-----------------------|---------------|-------------|
|-----------------|-----------------6-----|---------------|-------------|
|--5--3--2--3--5--|--7--7--8--8--8-----8--|--8--7--8-\-5--|--7--5--7--8-|
|-----------------|-----------------------|---------------|-------------|
|-----------------|-----------------------|---------------|-------------|
|-----------------|-----------------------|---------------|-------------|

                                          1/4
|------------------------|------------------\---------|-----------------|
|------------------------|------------------/-^-------|-----------------|
|--8--7--5--7-\-5--3--5--|--3--3--3--2--(2)/----0--3--|--2--2--3--2--0--|
|------------------------|----------------------------|-----------------|
|------------------------|----------------------------|-----------------|
|------------------------|----------------------------|-----------------|
                                   
                                  Ending
|--------------------|-----------||-------|--------|------------------|
|--------------------|-----------||-------|-\--\---|------------------|
|--------------------|-----------||-------|--3--2--|------------------|
|--0--0--1--1--1--3--|--1--1--0--||-------|--------|---------------\--|
|--------------------|-----------||-------|--------|----------------7-|
|--------------------|-----------||-0--2--|--------|--0--7^0--6^5-----|
            
Submit corrections

comments powered by Disqus
↑ Back to top | *Blink 182* Tabs for Degenerate. Lyrics for acoustic guitar and electric guitar. Tablatures and chords are parodies/interpretations of the original songs. You may use it for private study, scholarship, research or language learning purposes only