» » »

*Blink 182*, Daze Gone By Bass tabs (ver.1)

Artists:  A B C D E F G H I J K L M N O P Q R S T U V W X Y Z # 

Daze Gone By Bass tabs (ver.1)

*Blink 182* Tabs
 Rating:
4/5 (4 votes)
Daze Gone By lessons Tabs too difficult? Try these video lessons and learn fast
                Blink 182:
"Daze Gone By"

     Intro Part 1
G|---------------| 2X
D|----2--0--0-5/4|
A|-0-------------|
E|---------------|

Intro Part 2

G|-----------------------------------------| 2X
D|-----------22-2-22-2-00-0-00-0-00-0-00-0-|
A|-00-0-00-0-------------------------------|
E|-----------------------------------------|
                                                                Only Play this the
Verse                                                               first time    
G|------------------------------------------------------------|-------------------|2X
D|-----------22-2-22-2-----------22-2-00-0----------22-2-22-2-|00-0-00-0-00-0-00-0|
A|-00-0-00-0-----------00-0-00-0-----------00-0-00-0----------|-------------------|
E|------------------------------------------------------------|-------------------|

Pre-Chorus
G|---------------------------------------| 1X
D|-00-0-00-0-00-0-00-0-00-0-00-0-00-0-00-|
A|---------------------------------------|
E|---------------------------------------|

Chorus
G|---------4-2-1-----0-2-----0-2-|4X
D|----0-2-2------0-4-----0-4-----|
A|-0-4---------------------------|
E|-------------------------------|

Post-Chorus
G|-----0-2-----0-2-|1X
D|-0-4-----0-4-----|
A|-----------------|
E|-----------------|

In the middle end of the song there is a break where the bass plays some kind of fancy riff. I havent been able to get this yet, but i wanted to submit what i already had which is the rest of the song. :) ill submit it as corrections later

Order:
Intro Pt 1 
Intro Pt 2 
Verse
Pre-Chorus
Chorus
Post-Chorus
Intro Pt 2
Verse
Pre-Chorus
Chorus
Post-Chorus
Intro Pt 2
The Unknown Break :)
Intro Pt 2 X2 (4X)
Pre-Chorus
Chorus
Post-Chorus
Chorus
Post Chorus
            
Submit corrections

comments powered by Disqus
↑ Back to top | *Blink 182* Bass for Daze Gone By. Lyrics for acoustic guitar and electric guitar. Tablatures and chords are parodies/interpretations of the original songs. You may use it for private study, scholarship, research or language learning purposes only