» » »

Damn It Tabs (ver.3)

Artists:  A B C D E F G H I J K L M N O P Q R S T U V W X Y Z # 

Damn It Tabs (ver.3)

*Blink 182*
Rating:
0/5 (0 votes)

Hard to play? Try these video lessons and learn fast.
                Opening/Main Riff

E--------------|------------|------------|------------|
B--------------|------------|------------|------------|
G--------------|------------|------------|------------|
D--------------|------------|------------|------------|
A--------5-5-7-|------5-5-7-|------5-5-7-|------7-7-5-|
D--10-10-------|--5-5-------|--7-7-------|--3-3-------|


Verse
E------------------------------------------|
B------------------------------------------|
G------------------------------------------|
D--10---10-10-10-10-10-10--5---5-5-5-5-5-5-|
A--10---10-10-10-10-10-10--5---5-5-5-5-5-5-|
D--10---10-10-10-10-10-10--5---5-5-5-5-5-5-|
      pm.................    pm............

E-----------------------------------|
B-----------------------------------|
G-----------------------------------|
D--7---7-7-7-7-7-7--3---3-3-3-3-3-3-|
A--7---7-7-7-7-7-7--3---3-3-3-3-3-3-|
D--7---7-7-7-7-7-7--3---3-3-3-3-3-3-|
     pm...........    pm...........

E------------------------------------------|
B------------------------------------------|
G------------------------------------------|
D--10---10-10-10-10-10-10--5---5-5-5-5-5-5-|
A--10---10-10-10-10-10-10--5---5-5-5-5-5-5-|
D--10---10-10-10-10-10-10--5---5-5-5-5-5-5-|
      pm.................    pm............

E-----------------------------------|
B-----------------------------------|
G-----------------------------------|
D--7---7-7-7-7-7-7--3---3-3-3-3-3-3-|
A--7---7-7-7-7-7-7--3---3-3-3-3-3-3-|
D--7---7-7-7-7-7-7--3---3-3-3-3-3-3-|
     pm...........    pm............


E------------------------------------------|
B------------------------------------------|
G------------------------------------------|
D--10---10-10-10-10-10-10--5---5-5-5-5-5-5-|
A--10---10-10-10-10-10-10--5---5-5-5-5-5-5-|
D--10---10-10-10-10-10-10--5---5-5-5-5-5-5-|


E-----------------------------------|
B-----------------------------------|
G-----------------------------------|
D--7---7-7-7-7-7-7--3---3-3-3-3-3-3-|
A--7---7-7-7-7-7-7--3---3-3-3-3-3-3-|
D--7---7-7-7-7-7-7--3---3-3-3-3-3-3-|

E------------------------------------------|
B------------------------------------------|
G------------------------------------------|
D--10---10-10-10-10-10-10--5---5-5-5-5-5-5-|
A--10---10-10-10-10-10-10--5---5-5-5-5-5-5-|
D--10---10-10-10-10-10-10--5---5-5-5-5-5-5-|


E-----------------------------------|
B-----------------------------------|
G-----------------------------------|
D--7---7-7-7-7-7-7--3---3-3-3-3-3-3-|
A--7---7-7-7-7-7-7--3---3-3-3-3-3-3-|
D--7---7-7-7-7-7-7--3---3-3-3-3-3-3-|

Chorus
E--------------------------------------------------|
B--------------------------------------------------|
G--------------------------------------------------|
D--10-10-10-10-10-10-10-10-10-10-10-10-10-10-10-10-|
A--10-10-10-10-10-10-10-10-10-10-10-10-10-10-10-10-|
D--10-10-10-10-10-10-10-10-10-10-10-10-10-10-10-10-|

E----------------------------------|
B----------------------------------|
G----------------------------------|
D--5-5-5-5-5-5-5-5-5-5-5-5-5-5-5-5-|
A--5-5-5-5-5-5-5-5-5-5-5-5-5-5-5-5-|
D--5-5-5-5-5-5-5-5-5-5-5-5-5-5-5-5-|

E----------------------------------|
B----------------------------------|
G----------------------------------|
D--7-7-7-7-7-7-7-7-7-7-7-7-7-7-7-7-|
A--7-7-7-7-7-7-7-7-7-7-7-7-7-7-7-7-|
D--7-7-7-7-7-7-7-7-7-7-7-7-7-7-7-7-|

E----------------------------------|
B----------------------------------|
G----------------------------------|
D--3-3-3-3-3-3-3-3-3-3-3-3-3-3-3-3-|
A--3-3-3-3-3-3-3-3-3-3-3-3-3-3-3-3-|
D--3-3-3-3-3-3-3-3-3-3-3-3-3-3-3-3-|


Interlude
E------|-----|-----|-----|
B--13--|--8--|--10-|--6--|
G--12--|--7--|--9--|--5--|  
D--10--|--5--|--7--|--3--|
A--10--|--5--|--7--|--3--|
D--10--|--5--|--7--|--3--|


Order:
Opening Riff x2
Main Riff    x2
Verse        
Main Riff    x2
Verse        
Chorus       x2
Main Riff    x2
Verse
Chorus       x2
Interlude    x2
Main Riff    x4


There it is, simple as can be. I've tabbed this for the live version cuz the recording is done with several guitars, you can play this right along with the recording and it'll be perfect, you won't be able to tell the difference (if you keep in time of course). I hope you like the tab... please rate it and rock on!

~Reed
            
Hard to play? Try these video lessons and learn fast. | Correct




comments powered by Disqus
↑ Back to top | Tablatures and chords are parodies/interpretations of the original songs. You may use it for private study, scholarship, research or language learning purposes only