» » »

Damn It Tabs (ver.2)

Artists:  A B C D E F G H I J K L M N O P Q R S T U V W X Y Z # 

Damn It Tabs (ver.2)

*Blink 182*
Rating:
0/5 (0 votes)

Hard to play? Try these video lessons and learn fast.
                This Tab has been modified from your comments and corrections, if it wasn't perfect then, it is definetly perfect now!

X: Palm Mute the Power Chord 

Intro 1: (Tom plays it this way live)
e)------------------------------------------------------
b)------------------------------------------------------
g)------------------------------------------------------
d)-------0-0-2-----0-0-2------0-0-2-----2-2-0--   X4 
a)--3-3-------------------0-0----------------------
e)--------------3-3-----------------1-1-----------

Intro 2: (The correct way to play the song)
e)---------------------------------------------------------
b)---------------------------------------------------------
g)---------------------------------------------------------
d)-----------2------------2-----------2------2-2----   X4 
a)--3-3-5-5---------5-5------0-0-5-5--------------5--
e)--------------3-3----------------------1-1---------

Verse 1: X2 (It's alright, to tell me...)
e)------------------------------------------------
b)------------------------------------------------
g)---5-55555-----------2-22222--------------------
d)---5-55555--5-55555--2-22222--3-33333-----------
a)---3-33333--5-55555--0-00000--3-33333-----------
e)------------3-33333-----------1-11111-----------
       xxxxx    xxxxx    xxxxx    xxxxx

Verse 2: X2 (I know that you're leaving...)
e)--------------------------------------------------------------
b)-------------------------------------------------------------
g)--55555---------22222------------------------------------------
d)--55555--55555--22222--3-3-3-3-----------------
a)--33333--55555--00000--3-3-3-3-----------------
e)---------33333---------1-1-1-1-----------------

Chorus: (And it'll happen once again...)
e)-----------------------------------------------------------------
b)-----------------------------------------------------------------
g)---55555555555---------------22222222222-------------------------
d)---55555333333--55555555555--22222222222--3333333333-------------
a)---33333333333--55555555555--00000000000--3333333333-------------
e)----------------33333333333---------------1111111111-------------

(But everbody's gone...)
e)-----------------------------------------------------------------
b)-----------------------------------------------------------------
g)---55555555555---------------22222222222-------------------------
d)---55555333333--55555555555--22222222222--33333--55555-----------
a)---33333333333--55555555555--00000000000--33333--55555-----------
e)----------------33333333333---------------11111--33333-----------

Breakdown Guitar 1
e)-----------------------------------------
b)-----------------------------------------
g)-----------------------------------------
d)--5----5----2----3----5----5----2----3---
a)--3----5----3----3----3----5----3----3---
e)-----------------------------------------

Breakdown Guitar 2
e)--0---------0----0----------0--------0------0----------0------0---------------
b)----1-----3---1----1------3---1----3---1------1------3---1------1-------------
g)------0--------------0--------------------------0-----------------0-----------
d)------------------------------------------------------------------------------
a)------------------------------------------------------------------------------
e)------------------------------------------------------------------------------
 (For the breakdown, you can play either or, Tom plays Guitar part 1 Live clean)

End On:
e)------
b)------
g)--5--
d)--5--
a)--3--
e)------


Order:
Intro x4
Verse 1
Verse 2
Intro x2
Verse 1
Verse 2
Chorus
Intro x2
Verse 1
Verse 2
Chorus
Breakdown Guitars 1 and 2
Intro to end

Thanks and enjoy!

Nick Singleton
            
Hard to play? Try these video lessons and learn fast. | Correct




comments powered by Disqus
↑ Back to top | Tablatures and chords are parodies/interpretations of the original songs. You may use it for private study, scholarship, research or language learning purposes only