» » »

*Blink 182*, Dammit Tabs (ver.14)

Artists:  A B C D E F G H I J K L M N O P Q R S T U V W X Y Z # 

Dammit Tabs (ver.14)

*Blink 182* Tabs
Rating:
0/5 (0 votes)
Dammit lessons Tabs too difficult? Try these video lessons and learn fast
                (Totally)
(Complete)
______________________________________________________________________/


Main Riff:  

 |------------------------------------------------------------------
 |------------------------------------------------------------------
 |------------------------------------------------------------------
 |---------00--2-------00--2------220---------320-------------------
 |-----33---------------------22--------00--------------------------
 |-----------------33-----------------------------------------------	

 Chords:  Same throughout the whole song
      C5     G5    A5      F5
|----------------------------------------------------------------------
|----------------------------------------------------------------------
|---5------------------------------------------------------------------
|---5-------5-----7------3---------------------------------------------
|---3-------5-----7------3------------------------------------------
|-----------3-----5------1---------------------------------------------


Guitar1:  Main Riff - 2x
Guitar 2:  Silent

Guitar 1: Main Riff 2x
Guitar 2: C5 G5 A5 F5 2x (2nd time Hold F5 a little into the next phrase)

Guitar 1:

Muted
|----------------------------------------------------------------------
|----------------------------------------------------------------------
|---5------------------------------------------------------------------
|---5----------5------------7-------------------3----------------------
|---3----------5------------7-------------------3----------------------
|--------------3------------5-------------------1----------------------
It's alright / to tell me / what you think / about me
I won't try / to argue / or hold it / against you

Open
|----------------------------------------------------------------------
|----------------------------------------------------------------------
|---5------------------------------------------------------------------
|---5----------5------------------7------------------3------------
|---3----------5------------------7------------------3----------
|--------------3------------------5------------------1---------------
I know that / you're leaving / you must have / your reasons
The season / is calling / and your pictures / are falling down

Guitar 1: Main Riff 2x
Guitar 2: C5 G5 A5 F5 2x (2nd time Hold F5 a little into the next phrase)

Muted
|----------------------------------------------------------------------
|----------------------------------------------------------------------
|---5------------------------------------------------------------------
|---5--------------5-----------7-------------------3-------------------
|---3--------------5-----------7-------------------3-----------------
|------------------3-----------5-------------------1-------------------
The steps that / I retrace / a sad look / on your face
The timing / and structure / did you hear / he f**ked her?

Open 
|----------------------------------------------------------------------
|----------------------------------------------------------------------
|---5-----------------------------------------------------------------5
|---5----------5---------------7-------------------3------------------5
|---3----------5---------------7-------------------3------------------3
|--------------3---------------5-------------------1-------------------

 A day late / a buck short / I'm writing / the report
 I'm losing / and failing / when I move / I'm flailing now

           		G5
And it's happened once again
  	        A5	         
 I'll turn to a friend
  		    F5	         
Someone that understands
           		 C5
Sees through the master plan

        	 G5
But everybody's gone
           		    A5
And I've been here for too long
           	   F5	
To face this on my own
           		      	         
Well I guess this is growing up
 
Guitar 1: Main Riff 2x
Guitar 2: C5 G5 A5 F5 2x (2nd time Hold F5 a little into the next phrase)
Well I guess this is growing up

Muted
|----------------------------------------------------------------------
|----------------------------------------------------------------------
|---5------------------------------------------------------------------
|---5--------------5-----------7-------------------3-------------------
|---3--------------5-----------7-------------------3-----------------
|------------------3-----------5-------------------1-------------------
And maybe / I'll see you / at a movie / sneak preview
You'll show up / and walk by / on the arm / of that guy

Open
|----------------------------------------------------------------------
|----------------------------------------------------------------------
|---5-----------------------------------------------------------------5
|---5--------------5------------------7-------------------3-----------5
|---3--------------5------------------7-------------------3-----------3
|------------------3-------------------5------------------1------------
And I'll smile / and you'll wave / we'll pretend / it's okay
The charade / it won't last / when he's gone / I won't come back


G. Chorus
Same as First Chorus
Except Guitar 3 (w/o wah and light dist.)
Rhythm Fig. 4 (Play four times)
E|-15-15-15-15-15-15-15-15-15-15-14-12-14-12-8---
B|---------------------------------------------------------------------
G|-12-12-12-12-12-12-12-12-12-12-11-9--11--9--5---
D|---------------------------------------------------------------------
A|---------------------------------------------------------------------
E|---------------------------------------------------------------------
			  G5
And it's happened once again
  	           A5	         
 I'll turn to a friend
  		     F5	         
Someone that understands
           		 C5
Sees through the master plan

           	 G5
But everybody's gone
               		      A5
And you've been here for too long
           	   F5	
To face this on my own
           		      	         
Well I guess this is growing up
 


Bridge: 2x
|------------------------------------------------------------------------
|---5------------5------5-----------5----5--------------------------
|-----5-0-----5---0-------5-0----5---0-5--5-------------------------
|----------------------------------------------------------------------
|--------------------------------------------------------------------
|-------------------------------------------------------------------------

Guitar 1: Main Riff 4x
Guitar 2: C5 G5 A5 F5 4x 
Well, I guess this is growing up [4x]
           		      C5
Well, I guess this is growing up.
            

comments powered by Disqus
↑ Back to top | *Blink 182* Tabs for Dammit. Lyrics for acoustic guitar and electric guitar. Tablatures and chords are parodies/interpretations of the original songs. You may use it for private study, scholarship, research or language learning purposes only