>
 >
Dammit Complete

Dammit Complete Guitar Tabs

*Blink 182* - Dammit Complete chords, tabs, tablatures, lyrics

Guitar lessons | Add/correct | Request | Top 50 tabs Artists:  A B C D E F G H I J K L M N O P Q R S T U V W X Y Z 0-9

Dammit Complete Guitar Tabs – *Blink 182*

CD, Sheet music, Poster

Do you like Dammit Complete? Share with your friends now
Tabs
Blink 182
Dammit
Dude Ranch


C5 |---| G5 |---| A5 |---| F5 |---|
   |---|    |---|    |---|    |---|
   |-5-|    |---|    |-2-|    |---|
   |-5-|    |-5-|    |-2-|    |-3-|
   |-3-|    |-5-|    |---|    |-3-|
   |---|    |-3-|    |---|    |-1-|


Intro 
E|-----------------------------------------------------------|
B|-----------------------------------------------------------|
G|-----------------------------------------------------------| X 4
D|-------0-0-2------0-0-2-------0-0-2------------2-2-0-------|
A|--3-3--------------------0-0-------------------------------|
E|-------------3-3-------------------------1-1---------------|

[C5] It's all right [G5] to tell me [A5] what you think [F5] about me
[C5] I won't try [G5] to argue [A5] or hold it [F5] against you
[C5] I know that [G5] youíre leaving [A5] you must have [F5] your reasons
[C5] The season [G5] is calling [A5] and your pictures [F5] are falling down

E|-----------------------------------------------------------|
B|-----------------------------------------------------------|
G|-----------------------------------------------------------| 
D|-------0-0-2------0-0-2-------0-0-2------------2-2-0-------|
A|--3-3--------------------0-0-------------------------------|
E|-------------3-3-------------------------1-1---------------|

[C5] The steps that [G5] I retrace [A5] a sad look [F5] on your face
[C5] The timing [G5] and structure [A5] did you hear [F5] he fucked her?
[C5] A day late [G5] a buck short [A5] Iím writing [F5] the report
[C5] I'm losing [G5] and failing [A5] when I move [F5] Iím failing now

And it's happened once [G5] again
I'll turn to a [A5] friend
Someone that unders [F5] tands
Sees through the master [C5] plan

But everybody's [G5] gone
And I've been here for too [A5] long
To face this on my [F5] own
Well I guess this is growing up

E|-----------------------------------------------------------|
B|-----------------------------------------------------------|
G|-----------------------------------------------------------| 
D|-------0-0-2------0-0-2-------0-0-2------------2-2-0-------|
A|--3-3--------------------0-0-------------------------------|
E|-------------3-3-------------------------1-1---------------|




[C5] And maybe [G5] Iíll see you [A5] at a movie [F5] sneak preview
[C5] You'll show up [G5] and walk by [A5] on the arm [F5] of that guy
[C5] And I'll smile [G5] and you'll wave [A5] weíll pretend [F5] itís okay
[C5] The charade [G5] it won't last [A5] when he's gone [F5] I won't come back

And it's happened once [G5] again
I'll turn to a [A5] friend
Someone that unders [F5] tands
Sees through the master [C5] plan

But everybody's [G5] gone
And I've been here for too [A5] long
To face this on my [F5] own
Well I guess this is growing up

E|-----------------------------------------------------------|
B|-----------------------------------------------------------|
G|------5--------7--------9---------10-----------------------| 
D|----5--------7--------9--------10--------------------------|
A|--3-------5--------7--------8------------------------------|
E|-----------------------------------------------------------|


E|-----------------------------------------------------------|
B|-----------------------------------------------------------|
G|-----------------------------------------------------------| 
D|-------0-0-2------0-0-2-------0-0-2------------2-2-0-------|
A|--3-3--------------------0-0-------------------------------|
E|-------------3-3-------------------------1-1---------------|





Comments


Popular *Blink 182* tabs & chords
After Midnight 3 Bass Tabs
Anthem 3 Bass Tabs
Carousel 7 Bass Tabs
Down 3 Bass Tabs
Sex With His Sister 1 Bass Tabs
Im Sorry 1 Tabs
Mothers Day 2 Tabs
Mutt Tabs
Obvious 1 Tabs
Untitled 2 Tabs


Song lyrics



↑ Back to top | Tablatures and chords are parodies/interpretations of the original songs. You may use it for private study, scholarship, research or language learning purposes only
© 2014 AZChords.com Contact us | Privacy policy | DMCA | Add/correct tabs | Request tabs | Top 50 tabs