» » »

*Blink 182*, Dammit Tabs (ver.5)

Artists:  A B C D E F G H I J K L M N O P Q R S T U V W X Y Z # 

Dammit Tabs (ver.5)

*Blink 182* Tabs
 Rating:
4/5 (4 votes)
Dammit lessons Tabs too difficult? Try these video lessons and learn fast
                "(3)
                               DAMMIT - Blink 182

Intro:
e|---------------------------------------------------| 
B|---------------------------------------------------| 
G|---------------------------------------------------| 4x 
D|-----------2------------2-----------2-------2-2-0--| 
A|--3-3-5-5----------5-5-----0-0-5-5-----------------| 
E|--------------3-3----------------------1-1---------| 

Verses: ¨It's Alrigh To Tell me...¨
e|---------------------------------------------------------------------|
B|---------------------------------------------------------------------|
G|--5--5-5-5-5-5-5--------------------2--2-2-2-2-2-2-------------------| 2x 
D|--5--5-5-5-5-5-5---5--5-5-5-5-5-5---2--2-2-2-2-2-2---3--3-3-3-3-3-3--|    
A|--3--3-3-3-3-3-3---5--5-5-5-5-5-5---0--0-0-0-0-0-0---3--3-3-3-3-3-3--|
E|-------------------3--3-3-3-3-3-3--------------------1--1-1-1-1-1-1--|
      [PM.........]    [PM.........]    [PM.........]    [PM.........]

¨I Know That You're, Leaving...¨
e|-----------------------------------------------|
B|-----------------------------------------------|
G|--5--5-5-5-5--------------2--2-2-2-2-----------| 2x
D|--5--5-5-5-5--5--5-5-5-5--2--2-2-2-2--3--3--3--|         
A|--3--3-3-3-3--5--5-5-5-5--0--0-0-0-0--3--3--3--|
E|--------------3--3-3-3-3--------------1--1--1--|

Chorus: ¨And It Happen Once Again...¨
e|--------------------------------------------------------------|-----|
B|--------------------------------------------------------------|-----| 
G|5--5-5-5-5-5-5------------------2--2-2-2-2-2-2----------------|-----| 2x
D|5--5-5-5-5-5-5--5--5-5-5-5-5-5--2--2-2-2-2-2-2--3--3-3-3-3-3-3|5-5-5| In the 2nd time
A|3--3-3-3-3-3-3--5--5-5-5-5-5-5--0--0-0-0-0-0-0--3--3-3-3-3-3-3|5-5-5| add these 3 chords
E|----------------3--3-3-3-3-3-3------------------1--1-1-1-1-1-1|3-3-3|

Solo:
e|------------------------------------------|
B|--5------3--5-----5------3--5----3--5-----|
G|----5----------5----5----------5-------5--| 2x
D|------5---------------5-------------------|
A|------------------------------------------|
E|------------------------------------------|

Solo live: This is what he plays live.
e|----------------------------------------------------------| 
B|----------------------------------------------------------| 
G|--5------7------5-------------5------7------5-------------| 
D|--5------7------5------5------5------7------5----5-5-5-5--| 
A|--3------5------3------5------3------5------3----5-5-5-5--| 
E|-----------------------3-------------------------3-3-3-3--| 


End on:
e|-----| 
B|-----| 
G|--5--| Let Ring.
D|--5--| 
A|--3--| 
E|-----| 


That's it, this is the correct way to play the song cus it is exactly what Tom plays on the Dammit video and on a live video I've got.
"            
Submit corrections

comments powered by Disqus
↑ Back to top | *Blink 182* Tabs for Dammit. Lyrics for acoustic guitar and electric guitar. Tablatures and chords are parodies/interpretations of the original songs. You may use it for private study, scholarship, research or language learning purposes only