» » »

*Blink 182*, Dammit Tabs (ver.4)

Artists:  A B C D E F G H I J K L M N O P Q R S T U V W X Y Z # 

Dammit Tabs (ver.4)

*Blink 182* Tabs
Rating:
0/5 (0 votes)
Dammit lessons Tabs too difficult? Try these video lessons and learn fast
                "(2)
DAMMIT

INTRO (GUITAR 1) 

E------------------------------------------------------------------------
B------------------------------------------------------------------------
G------------------------------------------------------------------------
D------0-0-2--------0-0-2------0-0-2-------2-2-0-------------------
A-3-3----------------------0-0----------------------------------------
E---------------3-3----------------------1-1---(PLAY 4 TIMES)--
VERSE 1 (GUITAR1)

E-------------------------------------------------------------------------
B-------------------------------------------------------------------------
G------------------------------------------------------------------------
D-5-5-5-5-5------------------------------------------------------------
A-3-3-3-3-3-5-5-5-5-5--7-7-7-7-7--3-3-3-3-3--------------------
E-----------3-3-3-3-3--5-5-5-5-5--1-1-1-1-1-----(PLAY 4 TIMES)
(NOW PLAY INTRO AGAIN)
(THEN PLAY VERSE 1 AGAIN)
(NOW PLAY VERSE 1 SLOWER THEN BEFORE ( PLAY THIS 2 TIMES INSTEAD OF 4))
(AFTER THAT PLAY INTRO AGAIN)
(THEN VERSE 1…AGAIN)
(NEXT VERSE 1 SLOWER AGAIN 2 TIMES)
NOW…

E------------------------------------------------------------------------
B------------------------------------------------------------------------
G------------------------------------------------------------------------
D-5---7---9-----THIRD TIME PLAY THIS---5---7-7-(NOW
A-3---5---7-----------------------------------------3---5-5--PLAY INTRO)
E-----------------------------(HOLD EACH FOR LIKE 4 SECONDS
				PLAY THIS THREE TIMES)

THAT’S ALL GOOD LUCK LISTEN TO THE SONG BYE.
"            
Submit corrections

comments powered by Disqus
↑ Back to top | *Blink 182* Tabs for Dammit. Lyrics for acoustic guitar and electric guitar. Tablatures and chords are parodies/interpretations of the original songs. You may use it for private study, scholarship, research or language learning purposes only