» » »

*Blink 182*, Carousel Tabs (ver.8)

Artists:  A B C D E F G H I J K L M N O P Q R S T U V W X Y Z # 

Carousel Tabs (ver.8)

*Blink 182* Tabs
Rating:
0/5 (0 votes)
Carousel lessons Tabs too difficult? Try these video lessons and learn fast
                (Riff)
E---------------------------------------------
B---------------------------------------------
G---------------------------------------------
D--4-4-5-7-5-4---------------1-1-2-4-2-1------
A-5------------5-4-4-5-7-4--2-----------2--5-5
E---------------5---------5---------------3-3-

Interlude=
E------------------------------------
B------------------------------------
G------------------------------------
D------------------------------------
A-9-9-9-10-7--9-9-9-10-9-12-12-10-9-7
E------------------------------------

THANX FOR READING, IT'S RIGHT SO IT'S WORTH READING!
            

comments powered by Disqus
↑ Back to top | *Blink 182* Tabs for Carousel. Lyrics for acoustic guitar and electric guitar. Tablatures and chords are parodies/interpretations of the original songs. You may use it for private study, scholarship, research or language learning purposes only