» » »

*Blink 182*, Carousel Tabs (ver.6)

Artists:  A B C D E F G H I J K L M N O P Q R S T U V W X Y Z # 

Carousel Tabs (ver.6)

*Blink 182* Tabs
 Rating:
4/5 (4 votes)
Carousel lessons Tabs too difficult? Try these video lessons and learn fast
1
                (Live)
Intro
|----11-11-12-14-12-11--------6-6-7-9-7-6-----8-8-9-11-9-8-------7-----7------|
|--0-------------------12/7-7-------------7-9--------------9-5-5---5-5--------|
|-----------------------------------------------------------------------------|
|-----------------------------------------------------------------------------|

Riff
|-11-11-11-11-11--9-9-9-9-9--11-11-11-11-11--7-7-7-7-7------|
|--0--0--0--0--0--7-7-7-7-7---9--9--9--9--9--5-5-5-5-5------|
|-----------------------------------------------------------|
|-----------------------------------------------------------|

Verse
|---------------------------------------|
|---------------------------------------|
|-55555555----------22222222------------|
|----------55555555----------33333333---|

Chorus
|---------------------------------------|
|---------------------------------------|
|-55555555-77777777---------------------|
|-------------------55555555-33333333---|

Bridge Part 1(wait awhile after each note)
|---------------------------------|
|---------------------------------|
|-5-------------2-----------------|
|--------5-------------3----------|

Bridge Part 2
|-----------|
|-----------|
|-----------|
|---33333---|

its an easy song to figue out and there is more than one way to play it!
so if you figure out another or have any comments or questions e-mail me at
            
Submit corrections

comments powered by Disqus
↑ Back to top | *Blink 182* Tabs for Carousel. Lyrics for acoustic guitar and electric guitar. 1 Tablatures and chords are parodies/interpretations of the original songs. You may use it for private study, scholarship, research or language learning purposes only