» » »

Carousel Tabs (ver.16)

Artists:  A B C D E F G H I J K L M N O P Q R S T U V W X Y Z # 

Carousel Tabs (ver.16)

*Blink 182*
Rating:
0/5 (0 votes)

Hard to play? Try these video lessons and learn fast.
                This was submitted by Blinker27


i was the one that submitted Carousel version 6 but i screwed up...
so i registered a corrected my mistake and this sounds great. have





-------------------------------------------------------
-------------------------------------------------------
-------------------------------------------------------
-----4-4-5-7-5-4---------------------------------------
----5------------5---4-4-5-7-5-4------7-7-9-10-9-7-10--this
--------------------5------------5---7-----------------


-------------------------------------------------------
-------------------------------------------------------
-------------------------------------------------------
-------------------------------------------------------and this X2
------5-----5---5--------------------------------------
--5-5---5-5---5----------------------------------------


this part should be on bass but whatever!
-------------------------------------------------
-------------------------------------------------
-------------------------------------------------
-------------------------------------------------
----555555---11-11-11--999999-111111111111-777777  X2
----333333---0--0--0---777777-9-9-9-9-9-9--555555


then if that was bass, guitar would join right here

-------------------------------------------------------
-------------------------------------------------------
---9-9-9-----------------------------------------------
---9-9-9--999999--11-11-11-11-11-11--777777------------
---7-7-7--999999--11-11-11-11-11-11--777777------------
----------777777--9--9--9--9--9--9---555555------------


then this comes in... VERY DISTORTED

-------------------------
-------------------------
----5555-----------------
----5555-5555--7777--3333
----3333-5555--7777--3333
---------3333--5555--1111


-----------------------------------------
-----------------------------------------
-----------------------------------------
----4-4-4-4--2-2-2-2--4-4-4-4--0-0-0-0-X2
-----------------------------------------
-----------------------------------------

lil guitar thingy.....
----------------------------------------------------
----------------------------------------------------
--------11-11-11-11-11-11-11-11-/14/-9-9-9-9-9-9-9-9
----------------------------------------------------
----------------------------------------------------
----------------------------------------------------


--------------------------------------------------
--------------------------------------------------
----11-11-11-11-11-11-11-11--14-14-12-12-11-11-9-9
--------------------------------------------------
--------------------------------------------------
--------------------------------------------------

-------------------------------------------------------------------
-------------------------------------------------------------------
---11-11-11-11-11-11-11-11-/14/-9-9-9-9-9-9-9-9---7-7-7-7-7-7-7-7-7
-------------------------------------------------------------------
-------------------------------------------------------------------
-------------------------------------------------------------------


--------------------
--------------------
-----11-11--9-9--7-7
--------------------
--------------------
--------------------



play this while tom is singing


-------------------------
-------------------------
----5555-----------------
----5555-5555--7777--3333
----3333-5555--7777--3333
---------3333--5555--1111

not a motion from the telephone...
--------------------------------------------------------------
--------------------------------------------------------------
---11---11---11---11------9---9---9---9------11-----11------11
------9----9----9----9--7---7---7---7----9-9----9-9-----9-9---
--------------------------------------------------------------
--------------------------------------------------------------


i know, not a reason why...
-----------------------
-----------------------
-------7-7---7-7---7-7-
-----------5-----5----5
-----------------------
-----------------------


just you wait and see.....
-------------
-------------
--5-7-9-7----
--5-7-9-7--X4
--3-5-7-5----
-------------

then back to little guitar thingy and back to the thing where tom is 
singing then u go back to what i just wrote... the Just You Wait And 
See.....

then when tom is like... a tank of gas is a treasure to me, play this 
RIGHT when hes done singing this part...
_________
DISTORTED
----------------------------------------------------------------------
----------------------------------------------------------------------
----------------------------------------------------------------------
------4-5-7-5-4-------------------------------------------------------
----5-----------5---4-5-7-5-4------6-7-9-7-6------2-3-5-3-2----Xlike-5
------------------5-----------5--7-----------7--3-----------3---------


now back to the, just you wait and see and your done!!!!!

this is very very very perfect i think anyway.




BLINK-182 IS THE BEST PUNK ROCK BAND ON THE FACE OF THE EARTH!!!!!!
            
Hard to play? Try these video lessons and learn fast. | Correct




comments powered by Disqus
↑ Back to top | Tablatures and chords are parodies/interpretations of the original songs. You may use it for private study, scholarship, research or language learning purposes only