» » »

*Blink 182*, Carousel Tabs (ver.12)

Artists:  A B C D E F G H I J K L M N O P Q R S T U V W X Y Z # 

Carousel Tabs (ver.12)

*Blink 182* Tabs
 Rating:
4/5 (4 votes)
Carousel lessons Tabs too difficult? Try these video lessons and learn fast
                Artist-Blink 182
Song-Carousel
Instrument-Guitar

INTRO 1: 
e|--------------------------------------------------------------------|
B|--------------------------------------------------------------------|
G|--------------------------------------------------------------------|
D|----4-4-5-7-5-4-----------------------------------------------------|
A|---5------------5---4-4-5-7-5-4------7-7-9-10-9-7-9-----5-5---5---5-|
E|-------------------5------------5--7------------------3-----3---3---|

INTRO 2: 
e|--------------------------------------------------------------------|
B|--------------------------------------------------------------------|
G|--------------------------------------------------------------------|
D|----77777777--------------------------------------------------------|
A|----55555555--77777777--99999999---55555555-------------------------|
E|--------------55555555--77777777---33333333-------------------------|


INTRO 3: 
e|--------------------------------------------------------------------|
B|--------------------------------------------------------------------|
G|----7-7-7-7---------------------------------------------------------|
D|----7-7-7-7--7-7-7-7---5-5-5-5---5-5-5-5----------------------------|
A|----5-5-5-5--7-7-7-7---5-5-5-5---5-5-5-5----------------------------|
E|-------------5-5-5-5---7-7-7-7---3-3-3-3----------------------------|

INTRO 4: 
e|--------------------------------------------------------------------|
B|--------------------------------------------------------------------|
G|--7-----------------------------------------------------------------|
D|--7-----------------------------------------------------------------|
A|--5--444444-555555-444444--4-5-4-5-7-4-5-4-5-7----------------------|
E|--------------------------------------------------------------------|

INTRO 5:  
e|--------------------------------------------------------------------|
B|--------------------------------------------------------------------|
G|--------------------------------------------------------------------|
D|----------------------------------------0-0-0-0-4-0-7-0-5-4-0-------|
A|--9-9-9-10-7--9-9-9-12-10-9--9-9-9-10-7-----------------------------|
E|--------------------------------------------------------------------|

VERSE: 
e|--------------------------------------------------------------------|
B|--------------------------------------------------------------------|
G|---7777-------------------------------------------------------------|
D|---7777-7777--9999--5555--------------------------------------------|
A|---5555-7777--9999--5555--------------------------------------------|
E|--------5555--7777--3333--------------------------------------------|

CHORUS: 
e|--------------------------------------------------------------------|
B|--------------------------------------------------------------------|
G|--7777--9999--------------------------------------------------------|
D|--7777--9999--7777--5555--------------------------------------------|
A|--5555--7777--7777--5555--------------------------------------------|
E|--------------5555--3333--------------------------------------------|


INTERLUDE: x4
e|--------------------------------------------------------------------|
B|--------------------------------------------------------------------|
G|---7----------------------------------------------------------------|
D|---7-4-5-5-4--7----------9----------5-------------------------------|
A|---5----------7-4-5-5-4--9-7-9-9-7--5--2-3-3-2----------------------|
E|--------------5----------7----------3-------------------------------|
            
Submit corrections

comments powered by Disqus
↑ Back to top | *Blink 182* Tabs for Carousel. Lyrics for acoustic guitar and electric guitar. Tablatures and chords are parodies/interpretations of the original songs. You may use it for private study, scholarship, research or language learning purposes only