» » »

*Blink 182*, Carousel Bass tabs (ver.4)

Artists:  A B C D E F G H I J K L M N O P Q R S T U V W X Y Z # 

Carousel Bass tabs (ver.4)

*Blink 182* Tabs
 Rating:
4/5 (4 votes)
Carousel lessons Tabs too difficult? Try these video lessons and learn fast
1
                Carousel
Blink-182

I know this tab is right, because on morpheus i got a video
of mark playing carousel at sydney big day!!!!

Here is an important note if u want it to sound EXACTLY
right!!! - When your playing the intro of this song,
play the strings behind the pick-ups, not too far
or it will sound high, just play it RIGHT behind
the pick-ups. believe me, the intro is right.

IM NOT SURE ABOUT THE REST OF THE SONG
BUT ITS PROBABLY RIGHT.


Intro... yes its really only on two strings!!!
G|--11-11--12--14--12-11---------6-6--7--9--7--6--
D|-0---------------------12----7-----------------7
A|------------------------------------------------
E|------------------------------------------------


G|--9-9-11-12-11-9-11------7-----7---7
D|-9-------------------5-5---5-5---5--
A|------------------------------------
E|------------------------------------


G|--11-11--12--14--12-11---------6-6--7--9--7--6--
D|-0---------------------12----7-----------------7
A|------------------------------------------------
E|------------------------------------------------

THE CHORDS ARE PLAYED WAY MORE TIMES, BUT IT WOULD TAKE TOO LONG TO
G|---9-9-11-12-12-11-11--77777777-11-11-11-11-9999-11-11-11-11-LIST
D|-9---------------------55555555-0--0--0--0--7777-9--9--9--9--THEM
A|-------------------------------------------------------------ALL
E|-------------------------------------------------------------


G|--7777
D|--5555
A|------
E|------


G|---------------------------------------
D|---------------------------------------
A|-55555555------------------------------
E|-----------55555555--77777777--33333333


Guitar comes in and plays some slow distorted stuff before the big
guitar bridge and the bass does this...
G|-11-11-11-11-11-11-11-11--99999999--11-11-11-11-11-11--77777777
D|---------------------------------------------------------------
A|---------------------------------------------------------------
E|---------------------------------------------------------------

Bridge
G|--------------------------------------------------
D|--------------------------------------------------
A|-55555555-7----------------------10-10-10-10--9--7
E|------------55555555--77777777-9------------------


G|--------------------------------------------------
D|--------------------------------------------------
A|-55555555-7----------------------10-10-10-10--9--7
E|------------55555555-7--33333333------------------


Verse X4
G|-----------------------------------------------------------
D|-----------------------------------------------------------
A|--55555555--------------------10-10-10-10-10-10-10-10-10-10
E|------------55555555-77777777------------------------------

Chorus X4
G|----------------------------------
D|----------------------------------
A|-55555555--77777777--12-x8---10-x8
E|----------------------------------



Bridge
G|--------------------------------------------------
D|--------------------------------------------------
A|-55555555-7----------------------10-10-10-10--9--7
E|------------55555555--77777777-9------------------


G|--------------------------------------------------
D|--------------------------------------------------
A|-55555555-7----------------------10-10-10-10--9--7
E|------------55555555-7--33333333------------------



Verse X4
G|-----------------------------------------------------------
D|-----------------------------------------------------------
A|--55555555--------------------10-10-10-10-10-10-10-10-10-10
E|------------55555555-77777777------------------------------



Slows down...
G|-11-11-11-11-11-11-11-11--99999999-11-x8--77777777
D|--------------------------------------------------
A|--------------------------------------------------
E|--------------------------------------------------


Guitar Solo Part
G|--------------------------
D|--------------------------
A|-5------------------------
E|--------5-------7--------3



Chorus X4
G|----------------------------------
D|----------------------------------
A|-55555555--77777777--12-x8---10-x8
E|----------------------------------
            
Submit corrections

comments powered by Disqus
↑ Back to top | *Blink 182* Bass for Carousel. Lyrics for acoustic guitar and electric guitar. 1 Tablatures and chords are parodies/interpretations of the original songs. You may use it for private study, scholarship, research or language learning purposes only