» » »

Carousel Bass tabs (ver.18)

Artists:  A B C D E F G H I J K L M N O P Q R S T U V W X Y Z # 

Carousel Bass tabs (ver.18)

*Blink 182*
Rating:
0/5 (0 votes)

Hard to play? Try these video lessons and learn fast.
                Buddha - The Mark, Tom, and Travis show - Cheshire cat

Intro
G-----11-12-14-12-11-----------------------------8-9-11-9-8----------------
D-12-----------------12----11-12-14—12-11------9------------9-12-12-12-12--
A-----------------------12----------------12------------------10-10-10-10—-x2
E--------------------------------------------------------------------------

Intro riff (hardest part of the song, but still real easy)
G-11-11-11-11-11--9-9-9-9-9—-11-11-11-11-11---------------
D-0--0--0--0--0---7-7-7-7-7---9--9--9--9--9-12-12-12-12---
A-------------------------------------------10-10-10-10---
E---------------------------------------------------------

Verse 
G----------------------------------
D----------------------------------
A-5-5-5-5---------2-2-2-2----------
E---------5-5-5-5---------3-3-3-3—

Chorus
G-----------------------------------
D-----------------------------------
A-5-5-5-5-7-7-7-7-------------------
E------------------5-5-5-5-3-3-3-3—

Interlude- (same as intro riff, but an octave higher)
G-11-11-11-11-11--9-9-9-9-9—11-11-11-11-11--7-7-7-7-7-
D--0--0--0--0--0--7-7-7-7-7--9--9--9--9--9--5-5-5-5-5-
A-----------------------------------------------------
E-----------------------------------------------------
            
Hard to play? Try these video lessons and learn fast. | Correct




comments powered by Disqus
↑ Back to top | Tablatures and chords are parodies/interpretations of the original songs. You may use it for private study, scholarship, research or language learning purposes only