» » »

*Blink 182*, Carousel Bass tabs (ver.17)

Artists:  A B C D E F G H I J K L M N O P Q R S T U V W X Y Z # 

Carousel Bass tabs (ver.17)

*Blink 182* Tabs
Rating:
0/5 (0 votes)
Carousel lessons Tabs too difficult? Try these video lessons and learn fast
                Band: blink-182

This isn’t the version that is play on Cheshire Cat, so it doesn’t have that extra 15 
second intro.


G:---11-11-12-14-12-11------6-6-7-9-7-6-----9-9-11-12-11-9-11-----7------7---7-
D:-0-------------------0-/7-------------7\9-------------------5-5----5-5---5---
A:-----------------------------------------------------------------------------
E:-----------------------------------------------------------------------------

G:---11-11-12-14-12-11------6-6-7-9-7-6-----9-9-11-12-12-11-11--7-7-7-7-7-7-7--
D:-0-------------------0/7-------------7\9----------------------5-5-5-5-5-5-5--
A:-----------------------------------------------------------------------------
E:-----------------------------------------------------------------------------
           

G:-11-11-11-11-11-11--9--9--9--9--9--9--11-11-11-11-11-11---7-7-7-7-7-7-7-
D:-0--0--0--0--0--0---7--7--7--7--7--7---9--9--9--9--9--9---5-5-5-5-5-5-5-
A:------------------------------------------------------------------------
E:------------------------------------------------------------------------
There is a certain rhythm to this part, but it's easy to figure out.

Then its just guitar and drums and then the bass comes back and plays this

G:-11-11-11-11-11-11--9--9--9--9--9--9--11-11-11-11-11-11---7-7-7-7-7-7-7-
D:-0--0--0--0--0--0---7--7--7--7--7--7---9--9--9--9--9--9---5-5-5-5-5-5-5-
A:------------------------------------------------------------------------
E:------------------------------------------------------------------------

G:-------------------|     ------------------------------------------------------
D:-------------------|     ------------------------------------------------------
A:5555-0000-2222-----| X 2 -5555-0000-2222\10-10-10-10-5555-0000-2222\10-12-10-9- 
E:---------------3333|     ------------------------------------------------------

Verse: 
G:-------------------------------------------------------------
D:-------------------------------------------------------------
A:-5-5-5-5-5-5-5-----------------------------------------------
E:---------------5-5-5-5-5-5-5--7-7-7-7-7-7-7--3-3-3-3-3-3-3---

Chorus: 
G:----------------------------------------------
D:----------------------------------------------
A:-5-5-5-5---7-7-7-7----------------------------
E:---------------------5-5-5-5--3-3-3-3---------

after chorus, before 2nd Verse
G:-------------------------
D:-------------------------
A:5555-0000-2222-----------
E:---------------3333------

G:-------------------------------
D:-------------------------------
A:-5555-0000-2222\10-12-10-9-----
E:-------------------------------

Then play the verse twice, and after that play this for the 2nd half of the second verse:

G:-11-11-11-11-11-11--9--9--9--9--9--9--11-11-11-11-11-11--7-7-7-7-7-7-7-
D:-0--0--0--0--0--0---7--7--7--7--7--7---9--9--9--9--9--9--5-5-5-5-5-5-5-
A:-----------------------------------------------------------------------
E:-----------------------------------------------------------------------

Guitar solo:
G:-----------------------------------
D:-----------------------------------
A:-5----------5----------------------
E:---5--7--3----5--7-7-7-7--3-3-3-3--

After this play the verse twice and then the chorus. End on A: 5, which is a D.
            
Submit corrections

comments powered by Disqus
↑ Back to top | *Blink 182* Bass for Carousel. Lyrics for acoustic guitar and electric guitar. Tablatures and chords are parodies/interpretations of the original songs. You may use it for private study, scholarship, research or language learning purposes only