» » »

*Blink 182*, Carousel Bass tabs (ver.15)

Artists:  A B C D E F G H I J K L M N O P Q R S T U V W X Y Z # 

Carousel Bass tabs (ver.15)

*Blink 182* Tabs
Rating:
0/5 (0 votes)
Carousel lessons Tabs too difficult? Try these video lessons and learn fast
                CD intro starts here  (x2)
G|-14-14-14--12-12-12--11-11-|    |-6-6-6--7-7-7--9-9-9-9-9-9-9-|
D|-0--0--0---0--0--0---0--0--|    |-7-7-7--7-7-7--7-7-7-7-7-7-7-|
A|---------------------------| x2 |-----------------------------|
E|---------------------------|    |-----------------------------|

G|-12-12-12--11-11-11--9-9---12-12-12--11-11-11--9-9------------------|
D|-9--9--9---9--9--9---9-9---9--9--9---9--9--9---9-9-12-12-12-12-12-12|
A|---------------------------------------------------9--9--9--9--9--9-|
E|--------------------------------------------------------------------|
(repeat)

live intro startes here (note when played live it is always faster)
G|--11-11-12-14-12-11-----6-6-7-9-7-6-----9-9-11-12-11-9-11-----7-----7---7-| 
D|-0-----------------12\7-------------7/9-------------------5-5---5-5---5---|
A|--------------------------------------------------------------------------|
E|--------------------------------------------------------------------------|

G|---11-11-12-14-12-11-----6-6-7-9-7-6-----9-9-11-12-12-11-11---777777-|
D|--0-----------------12\7-------------7/9----------------------555555-|
A|---------------------------------------------------------------------|
E|---------------------------------------------------------------------|
(listen to song for rhythem)
G|11111111--9-9-9-9--11111111-7-7-7-7-| 
D|0-0-0-0---7-7-7-7--9-9-9-9--5-5-5-5-| 
A|------------------------------------| x4
E|------------------------------------|

Guitar Part

G|11111111--9-9-9-9--11111111-7-7-7-7-| 
D|0-0-0-0---7-7-7-7--9-9-9-9--5-5-5-5-| 
A|------------------------------------| x2
E|------------------------------------|

Now play this twice          
G----------------------------------------------------------------
D----------------------------------------------------------------
A-5-5-5-5-5-5-5-5-----------------2-2-2-2-2-2-2-2----------------
E----------------5-5-5-5-5-5-5-5-----------------3-3-3-3-3-3-3-3-

Now bust into this little riff that Mark plays behind the guitar.
Listen carefully, its there.  Play it twice.
G------------------------------------------------------------------------------------
D-16-16-16-16-16-16-16-16--14-14-14-14-14-14--16-16-16-16-16-16-16-16--12--14--12--11
A-14-14-14-14-14-14-14-14--12-12-12-12-12-12--14-14-14-14-14-14-14-14----------------
E------------------------------------------------------------------------------------

Now onto the verse
G--------------------------------------------------------------------------------
D--------------------------------------------------------------------------------
A-5-5-5-5-5-5-5-5-----------------2-2-2-2-2-2-2-2-/-10-10-10-10-10-10-10-10-/12\-
E-----------------5-5-5-5-5-5-5-5------------------------------------------------
The little /12\ is one of those little flourishes Mark used to do.

G--------------------------------------------------------------------------------
D--------------------------------------------------------------------------------
A-5-5-5-5-5-5-5-5-----------------2-2-2-2-2-2-2-2-/-10-10-10-10-10-10-10-10-/12\-
E-----------------5-5-5-5-5-5-5-5------------------------------------------------

  (I Talk to you every now and then)
G--------------------------------------------------------------------------------
D--------------------------------------------------------------------------------
A-5-5-5-5-5-5-5-5-----------------2-2-2-2-2-2-2-2-/-10-10-10-10-10-10-10-10-/12\-
E-----------------5-5-5-5-5-5-5-5------------------------------------------------

Just play that until Tom sings "Just you wait and see."  Thats when you go on to
this riff 4 times before going back to main riff. I guess it would be called the
chorus.
G----------------------------------------------------------------
D----------------------------------------------------------------
A-5-5-5-5-5-5-5-5-7-7-7-7-7-7-7-7-/-12-12-12-12-12-12-12-12-/14\-
E----------------------------------------------------------------

G------------------------------ 
D------------------------------
A-10-10-10-10-10-10-10-10-/12\-
E------------------------------

After playing the verse for a while, go to the guitar solo and play this:

G------------------------------------------  
D------------------------------------------
A-5-----2-----5-----2-2-2-2-/-10-10-10-10--
E----5-----3-----5-------------------------

And then immediately play this several times:
G------------------------------------------------------------------------------
D------------------------------------------------------------------------------
A-5-5-5-5-5-5-5-5---------------2-2-2-2-2-2-2-2-/-10-10-10-10-10-10-10-10-/12\-
E----------------5-5-5-5-5-5-5-5-----------------------------------------------
 
And then this several times:
G----------------------------------------------------------------
D----------------------------------------------------------------
A-5-5-5-5-5-5-5-5-7-7-7-7-7-7-7-7-/-12-12-12-12-12-12-12-12-/14\-
E----------------------------------------------------------------

G------------------------------ 
D------------------------------
A-10-10-10-10-10-10-10-10-/12\-
E------------------------------

Play the last riff until the end, and then finish on an A-5
            

comments powered by Disqus
↑ Back to top | *Blink 182* Bass for Carousel. Lyrics for acoustic guitar and electric guitar. Tablatures and chords are parodies/interpretations of the original songs. You may use it for private study, scholarship, research or language learning purposes only