» » »

*Blink 182*, Carousel Tabs (ver.3)

Artists:  A B C D E F G H I J K L M N O P Q R S T U V W X Y Z # 

Carousel Tabs (ver.3)

*Blink 182* Tabs
Rating:
0/5 (0 votes)
Carousel lessons Tabs too difficult? Try these video lessons and learn fast
                This is an old Blink 182 song, probably one of the best songs they’ve 
put out.  I wanted my punk-hating friends to be exposed to stuff like 
this, so I fixed it up for an acoustic guitar, switched a bit of 
stuff around and it sounds half decent.  If you’re familiar with the 
original, this won’t be difficult.  The intro’s kind of long, feel 
free to cut part of it out.

A
e--------------------------- |
b--------------------------- |
g-14-14-14-12-12-12-11-11--- |
d-0--0--0--0--0--0--0--0---- |     
a--------------------------- |
e--------------------------- |

B
e----------------- |
b----------------- |
g-6-6-6-7-7-7-9-9- |
d-7-7-7-7-7-7-7-7- |     
a----------------- |
e----------------- |

C
e------------------------- |
b--12-12-12-11-11-11-9-9-- |
g--9--9--9--9--9--9--9-9-- |
d------------------------- |
a------------------------- |
e------------------------- |

D
e--------------------- |
b--------------------- |
g---7777777777777777-- |
d---5555555555555555-- |
a--------------------- |
e--------------------- |

E
e----------------------------------------------------------
b----------------------------------------------------------
g---11-11-12-14-12-11-----6-6-7-9-7-6-----9-9-11-12-11-9---
d--0------------------12--------------7-9------------------
a------------------------0---------------------------------
e----------------------------------------------------------

e--------------------|
b--------------------|
g----7-7-------7-7---|
d--5-------5-5-------|
a--------------------|
e--------------------|

F
e---------------------------------------------
b---------------------------------------------
g--11-11-11h12p11--9-9-9h11p9--11-11-11h12p11-
d---------------------------------------------
a---------------------------------------------
e---------------------------------------------

e-----------------------
b-----------------------
g--14-14/12-12/11-11/9~-
d-----------------------
a-----------------------
e-----------------------

e---------------------------------------------
b---------------------------------------------
g--11-11-11h12p11--9-9-9h11p9--11-11-11h12p11-
d---------------------------------------------
a---------------------------------------------
e---------------------------------------------

e------------------|
b------------------|
g--12-12/11-11/9~--|
d------------------|
a------------------|
e------------------|

G
e--2--    ------------------------
b--3--    ------------------------
g--2--    ------------------------
d--0-- 14x---0-5-5-5-5-5-5-4------     both parts 2x
a-----    --0----------------7~---
e-----    ------------------------


e--2-    --0-   --------------------------3--   -----------
b--3-    --0-   --------------------------0--   -----------
g--2-    --1-   --------------------------0--   -----------
d--0- 8x --2-6x ---0-5-5-5-5-5-5-4--------0—16x-----------
a----    --2-   -0-----------------7~-----2--   --4h5~-----
e----    --0-   --------------------------3--   -----------

e----------------------------------------------------------
b----------------------------------------------------------
g----------------------------------------------------------
d--4-4-4h5p4---2-2-2h4p2---4-4-4h5p4---7-7/5-5/4-4/2-------
a----------------------------------------------------------
e----------------------------------------------------------

e----------------------------------------------------------
b----------------------------------------------------------
g----------------------------------------------------------
d--4-4-4h5p4---2-2-2h4p2---4-4-4h5p4---5-5/4-4/2-----------
a----------------------------------------------------------
e----------------------------------------------------------

e---------------------------------------|
b---------------------------------------|
g---------------------------------------|
d---0-0-4p0-5p0------0-0-4p0-5p0-4p0----|
a------------------0--------------------|
e---------------------------------------|

H
e--2--   --0-   --2-   --3-   ----|
b--3--   --2-   --3-   --0-   ----|
g--2--   --2-   --4-   --0-   ----|
d--0— 5x --2- 6x--4- 5x--0- 6x----|
a-----   --0-   --2-   --2-   ----|
e-----   --0-   --2-   --3-   ----|
timing is key for this bit of strumming

I
e--2--   --0-   --2-   --3-   ----|
b--3--   --2-   --3-   --0-   ----|
g--2--   --2-   --4-   --0-   ----|
d--0— 4x --2- 4x--4- 4x--0- 4x----|
a-----   --0-   --2-   --2-   ----|
e-----   --0-   --2-   --3-   ----|
    I talk to you every now and then, never felt so alone again…

J
e--2--   --0-   --0-   --3-   ----|
b--3--   --0-   --2-   --0-   ----|
g--2--   --1-   --2-   --0-   ----|
d--0— 4x --2- 4x--2- 4x--0- 4x----|
a-----   --2-   --0-   --2-   ----|
e-----   --0-   --0-   --3-   ----|
   Just you wait and see (just you wait and see)…

K
e-2-------------0-------------2-------------3-------------|
b-3-------------2-------------3-------------0-------------|
g-2-------------2-------------4-------------0-------------|
d-0--4-5-7-5-4--2-------------4--2-4-5-4-2--0-------------|
a---------------0--4-5-7-5-4--2-------------2--2-3-5-3-2--|
e---------------0-------------2-------------3-------------|
The timing here is doubled, so you may want to sub in power
chords to make it easier, especially with the Bb.


L
e--2-2-2-22-0-0-0-0-00-2-2-2-22--------------2~------------
b-------------------------------3-3-3-3~----3~-------------
g------------------------------------------0~--------------
d----------------------------------------------------------
a----------------------------------------------------------
e----------------------------------------------------------


Order:
A  2x
B  2x
A  2x
B  2x
C  2x
D
A  2x
B  2x
A  2x
B  2x
C  2x
D
E  2x
F
G
H  4x
I  4x
J  4x
H  2x
I  4x
K  4x
L
            
Submit corrections

comments powered by Disqus
↑ Back to top | *Blink 182* Tabs for Carousel. Lyrics for acoustic guitar and electric guitar. Tablatures and chords are parodies/interpretations of the original songs. You may use it for private study, scholarship, research or language learning purposes only