» » »

*Blink 182*, Carousel Bass tabs (ver.12)

Artists:  A B C D E F G H I J K L M N O P Q R S T U V W X Y Z # 

Carousel Bass tabs (ver.12)

*Blink 182* Tabs
 Rating:
4/5 (4 votes)
Carousel lessons Tabs too difficult? Try these video lessons and learn fast
                this is correct.

intro: play the following twice over

G:14-14-14--12-12-12--11-11-    x2
D:0--0--0---0--0--0---0--0--
A:--------------------------
E:--------------------------

G:6-6-6--7-7-7--9-9-    X2
D:7-7-7--7-7-7--7-7-
A:------------------
E:------------------

G:12-12-12--11-11-11--9-9-   X2
D:9--9--9---9--9--9---9-9-
A:------------------------
E:------------------------

G:----7----7---7-----7----7---7- x2
D:-55---55---5----55---55---5---
A:------------------------------
E:------------------------------


G:---11-11-12-14-12-11-------------------------- continued
D:-12------------------12---11-11-12-14-12-11--- below
A:------------------------12-----------------12-
E:----------------------------------------------

continued....
G:--9-9-11-12-11-9-11-
D:9-------------------
A:--------------------
E:--------------------

G:----7----7---7- x1
D:-55---55---5---
A:---------------
E:---------------


G:---11-11-12-14-12-11-------------------------- continued
D:-12------------------12---11-11-12-14-12-11--- below
A:------------------------12-----------------12-
E:----------------------------------------------

continued....
G:--9-9-11-12-12-11-11
D:9-------------------
A:--------------------
E:--------------------

G:7777777 x1
D:5555555
A:-------
E:-------

G:11-11-11-11-11-11-11-11-9-9-9-9-11-11-11-11-11-11-7-7-7-7
D:0--0--0--0--0--0--0--0--7-7-7-7-9--9--9--9--9--9--5-5-5-5
A:---------------------------------------------------------
E:---------------------------------------------------------
                                        repeat x4

******DRUM AND GUITAR ONLY*********

Verse
G:-------------------------------|
D:-------------------------------|
A:555555-------------------------|
E:------55555555-777777-33333333-|

G:-----------------------------------
D:-----------------------------------
A:555555-----------------------------
E:------55555555-777777/11-11-\7\5\3-add varied slides.

Chorus

G:--------------------------------
D:--------------------------------
A:5555555-7777777-----------------
E:----------------5555555-3333333- use in variation
            
Submit corrections

comments powered by Disqus
↑ Back to top | *Blink 182* Bass for Carousel. Lyrics for acoustic guitar and electric guitar. Tablatures and chords are parodies/interpretations of the original songs. You may use it for private study, scholarship, research or language learning purposes only