>
 >
Cacaphony

Cacaphony Guitar Tabs

*Blink 182* - Cacaphony chords, tabs, tablatures, lyrics

Guitar lessons | Add/correct | Request | Top 50 tabs Artists:  A B C D E F G H I J K L M N O P Q R S T U V W X Y Z 0-9

Cacaphony Guitar Tabs – *Blink 182*

CD, Sheet music, Poster

Do you like Cacaphony? Share with your friends now
Tabs
INTRO
						play 2x
e	----------------------------------------------------------------------------------------------------------------------
B	----------------------------------------------------------------------------------------------------------------------
G	-5--5--x-5--5--5----10-10---7----5-5--5--x--5--5---5-x--5---5---4-----5------------------------------------
D	-x--x--x--x--x---x----x--x-----x----x--x--x--x--x---x--x--x--x---x----x----x-------------------------------------
A	-3--3--x--3--3--3----8--8----5----3--3--3--x--3--3--3--x--3--3----2----3-------------------------------------
E	-----------------------------------------------------------------------------------------------------------------------

THEN PLAY
						play 1x
	----------------------------------------------------------------------------------------------------------------------
	----------------------------------------------------------------------------------------------------------------------
	-2-2-2-2-2-2-2-2-----------------2-2-2-2-2-2-2-2--5--12--12-12--------------------------------------------
	-2-2-2-2-2-2-2-2--3--3-3--3-3--2-2-2-2-2-2-2-2--x---x---x---x---3-3-3-3-3-3-3-3-3---------------------
	-0-0-0-0-0-0-0-0--3--3-3--3-3--0-0-0-0-0-0-0-0--3--10--10-10--3-3-3-3-3-3-3-3-3---------------------
	----------------------1--1-1--1-1-----------------------------------------1-1-1-1-1-1-1-1-1--------------------
	
VERSE (after you play intro 1x)

	----------------------------------------------------------------------------------------------------------------------
	----------------------------------------------------------------------------------------------------------------------
	----------------------------------------------------------------------------------------------------------------------
	------------------------------------2-2h3p2-------2--------------------------------------------------------------
	---------3-------------3------0-----------------3------3-----------------------------------------------------------
	-0--0-------0--3--3------3-----------------------------------------------------------------------------------------

INTERLUDE
								
	-----------------------------------------------------------------------------------------------------------------------
	----------------------------------------------------------------------------------------------------------------------
	-5--5-5-5-5-5--5--5-5-5-5-5--5--5-5-5-5-5-------------------------------------------------------------------
	-5--5-5-5-5-5--5--5-5-5-5-5--5--5-5-5-5-5-----3--s-5------------------------------------------------------
	-3--3-3-3-3-3--3--3-3-3-3-3--3--3-3-3-3-3-----3--s-5-----------------------------------------------------
	-------------------------------------------------------1--s-3------------------------------------------------------


VERSE
									on last time play this
	-------------------------------------------------------------------------------------|---------------------------------
	-------------------------------------------------------------------------------------|---------------------------------
	-5-5-5-5-5-5-5-5--2-2-2-2-2-2-2-2--------------------------------------------|--5-5-5-5-5-5-5-5--------------
	-5-5-5-5-5-5-5-5--2-2-2-2-2-2-2-2---3-3-3-3-3-3-3-3-3-3-3-3-3-3-3-3--|--x-x-x-x--x-x-x--x--------------
	-3-3-3-3-3-3-3-3--0-0-0-0-0-0-0-0---3-3-3-3-3-3-3-3-3-3-3-3-3-3-3-3--|--3-3-3-3-3-3-3-3---------------
	--------------------------------------------1-1-1-1-1-1-1-1-1-1-1-1-1-1-1-1--|--------------------------------
	( I'd think of all the things....)

		
CHORUS

	----------------------------------------------------------------------------------------------------------------------------
	----------------------------------------------------------------------------------------------------------------------------
	-9-9-9-9-9-9-9-9-10101010101010-5-5-5-5-5-5-5-5---2-2-2-2-2-2-2-2---9-9-9-9-9-9-9-9-10101010101010
	-9-9-9-9-9-9-9-9-10101010101010-5-5-5-5-5-5-5-5---2-2-2-2-2-2-2-2---9-9-9-9-9-9-9-9-10101010101010
	-7-7-7-7-7-7-7-7--8-8-8-8-8-8-8-8--3-3-3-3-3-3-3-3---0-0-0-0-0-0-0-0---7-7-7-7-7-7-7-7--8-8-8-8-8-8-8-8
	------------------------------------------------------------------------------------------------------------------------------

	-----------------------------------------------------------------------------------------------------------------------------
	-----------------------------------------------------------------------------------------------------------------------------
	-x-x-x-5-x-x-x-5-x-x-x-5-x-x-x-5---9-9-9-9-9-9-9-9--10101010101010--5-5-5-5-5-5-5-5--2-2-2-2-2-2-2-2-
	-x-x-x-5-x-x-x-5-x-x-x-5-x-x-x-5---9-9-9-9-9-9-9-9--10101010101010--5-5-5-5-5-5-5-5--2-2-2-2-2-2-2-2-
	-x-x-x-3-x-x-x-3-x-x-x-3-x-x-x-3---7-7-7-7-7-7-7-7--8-8-8-8-8-8-8-8----3-3-3-3-3-3-3-3--0-0-0-0-0-0-0-0-
	-----------------------------------------------------------------------------------------------------------------------------

	-----------------------------------------------------------------------------------------------------------------------------
	-----------------------------------------------------------------------------------------------------------------------------
	-9-9-9-9-9-9-9-9--10101010101010--5--5-5--5-5-4--4--4--4-4--5-----------------------------------------------
	-9-9-9-9-9-9-9-9--10101010101010--x--x-x---x-x--x--x--x--x-x--x-----------------------------------------------
	-7-7-7-7-7-7-7-7--8-8-8-8-8-8-8-8----3--3-3--3-3--2--2-2--2-2--3----------------------------------------------
	---------------------------------------------------------------------------------------------------------------------------

	
OUTRO

	---------------------------------------------------------------------------------------------------------------------------------
	---------------------------------------------------------------------------------------------------------------------------------
	-4-4-4-4--2-2-2-2-------------9-9-9-9--5----5--5---5--5----4--4-4--4-4---5-------------------------------------------
	-4-4-4-4--2-2-2-2--3-3-3-3--9-9-9-9--5----5--5---5--5----x--x-x---x-x---x--------------------------------------------
	-2-2-2-2--0-0-0-0--3-3-3-3--7-7-7-7--3----3--3---3--3----2--2-2--2-2---3--------------------------------------------
	-----------------------1-1-1-1-------------------------------------------------------------------------------------------------





Comments


Popular *Blink 182* tabs & chords
Carousel 5 Bass Tabs
Depends 2 Bass Tabs
Down 3 Bass Tabs
Cacophony Chords
21 Days Tabs
Carousel 4 Tabs
Dicklips Tabs
Going Away To College Intro Tabs
Time To Wake Up Tabs
What Went Wrong 100% Tabs


Song lyrics



↑ Back to top | Tablatures and chords are parodies/interpretations of the original songs. You may use it for private study, scholarship, research or language learning purposes only
© 2014 AZChords.com Contact us | Privacy policy | DMCA | Add/correct tabs | Request tabs | Top 50 tabs