» » »

*Blink 182*, Boring Tabs (ver.2)

Artists:  A B C D E F G H I J K L M N O P Q R S T U V W X Y Z # 

Boring Tabs (ver.2)

*Blink 182* Tabs
 Rating:
4/5 (4 votes)
Boring lessons Tabs too difficult? Try these video lessons and learn fast
1
                Intro
e|------------------------------------------------------------------------|
B|------------------------------------------------------------------------|
G|------------------------------------------------------------------------|
D|------------------------------------------------------------------------|
A|-0-4-0-0-5-0-4-0---2-----5---2-0----------------------------------------|
E|-----------------0---0-0---0--------------------------------------------|
p/m..........................|
Verse
e|------------------------------------------------------------------------|
B|------------------------------------------------------------------------|
G|------2--------2-----------------7-----------------2--------------7-----|
D|------2--------2--------4--------7--------2--------2--------------7-----|
A|-0-0--0---4-4--4--------4---5-5--5--------2---4-4--4--------2--0--5-----|
E|-------------------2-2--2------------0-0--0------------0--0-------------|
p/m.........................................................|
Chorus       
              No Trust                     All i got is lies
e|------------------------------------------------------------------------|
B|------------------------------------------------------------------------|
G|--------6-6-------7-7-7-9-9-9-9-------6-6--------7-7-7-9-9-9-9----------|
D|---7-7--6-6--6-6--7-7-7-9-9-9-9--7-7--6-6--6-6---7-7-7-9-9-9-9----------|
A|---7-7--4-4--6-6--5-5-5-7-7-7-7--7-7--4-4--6-6---5-5-5-7-7-7-7----------|
E|---5-5-------4-4-----------------5-5-------4-4--------------------------|
                     Bor-ing                            All right
e|------------------------------------------------------------------------|
B|------------------------------------------------------------------------|
G|--------6-6-------7-7-7--9-9-9-9--------6-6---------9-9-9-9-9-----------|
D|---7-7--6-6--6-6--7-7-7--9-9-9-9---7-7--6-6--6-6----9-9-9-9-9-----------|
A|---7-7--4-4--6-6--5-5-5--7-7-7-7---7-7--4-4--6-6----7-7-7-7-7-----------|
E|---5-5-------4-4-------------------5-5-------4-4------------------------|
Outro
|-------------------------------------------------------------------------|
B|------------------------------------------------------------------------|
G|------------------------------------------------------------------------|
D|---7-7-7-6-6-6----------------------------------------------------------|
A|---------------7-7-7-7-7-7-7-7-7-7--------------------------------------|
E|------------------------------------------------------------------------|

e|------------------------------------------------------------------------|
B|------------------------------------------------------------------------|
G|----------------------------------2--2----------------------------------|
D|-------6-6-6----------------------2--2----------------------------------|
A|-5-5-5-------7-7-7-0-0-0-0-0-0-0--0--0-------7-7-7-7--------------------|
E|------------------------------------------------------------------------|
                                    H.......|
Last atfer Outro
E|------------------------------------------------------------------------|
B|------------------------------------------------------------------------|
G|---------6--6--------7--7-7--9--9--9------------------------------------|
D|---7--7--6--6--6--6--7--7-7--9--9--9--7---------------------------------|
A|---7--7--4--4--6--6--5--5-5--7--7--7--7---------------------------------|
E|---5--5--------4--4-------------------5---------------------------------|

Intro-4x
Verse-2x
Chorus-1x
Into-4x
Verse-2x
Chorus-1x
Outro-4x
            
Submit corrections

comments powered by Disqus
↑ Back to top | *Blink 182* Tabs for Boring. Lyrics for acoustic guitar and electric guitar. 1 Tablatures and chords are parodies/interpretations of the original songs. You may use it for private study, scholarship, research or language learning purposes only