» » »

Apple Shampoo Tabs (ver.3)

Artists:  A B C D E F G H I J K L M N O P Q R S T U V W X Y Z # 

Apple Shampoo Tabs (ver.3)

*Blink 182*
Rating:
0/5 (0 votes)

Hard to play? Try these video lessons and learn fast.
                                                 Apple Shampoo-Blink 182


Intro:(...=Let It Ring) Intro 2x
E|--------------------------------------------------------|
B|--------------------------------------------------------|
G|----------------------------------------5---------------|
D|--5...---------------------7-7-7-7---5-----5------------|
A|--3...-----7-7--3-3--7-7---5-5-5-5------------5---------|
E|-----------5-5--1-1--5-5--------------------------------|

Fill Or Something
E|-------------------------------------------------------------------|
B|-------------------------------------------------------------------|
G|----------5---5---------5---5---------5---5---------5----5---------|
D|--------5---5---------5---5---------5---5---------5---5------------|
A|---3-3-----------3-3------------3-3----------3-3-------------------|
E|-------------------------------------------------------------------|

Verse:
E|-------------------------------------------------------------|
B|-------------------------------------------------------------|
G|-------------------------------------------------------------|
D|----------------x-x-3-x-x-3--x-x-5-x-x-5---x-x-3-x-x-3-------|
A|---x-x-3-x-x-3-----------------------------------------------|
E|-------------------------------------------------------------|

Chorus Part 1
E|----------------------------------------------------------------------------------
B|----------------------------------------------------------------------------------
G|----------------------------------------------------------------------------------
D|----------------------------------------------------------------------------------
A|---7-7-7-7-7-7-7-7-7-7-7-7-7-7-7-7--3-3-3-3-3-3-3-3-3-3-3-3-3-3-3-3--7-7-7-7-7-7--
E|---5-5-5-5-5-5-5-5-5-5-5-5-5-5-5-5--1-1-1-1-1-1-1-1-1-1-1-1-1-1-1-1--5-5-5-5-5-5--

Continue
E|---------------------------------------------------|
B|---------------------------------------------------|
G|-----------------------------------5---------------|
D|------------------------7-7-7-7--5---5-------------|
A|--7-7-7-7-7-7-7-7-7-7---5-5-5-5--------5-----------|
E|--5-5-5-5-5-5-5-5-5-5------------------------------|

Chorus Part 2 Or Bridge Part 1:  (I know just where I stand) part
E|-----------------------------------------------------------------------------
B|-----------------------------------------------------------------------------
G|-----------------------------------------------------------------------------
D|--5-5-5-5-5-5-5-5-5-5-5-5-5-5-5-5--------------------------------------------
A|--3-3-3-3-3-3-3-3-3-3-3-3-3-3-3-3---5-5-5-5-5-5-5-5-5-5-5-5-5-5-5-5----------
E|------------------------------------3-3-3-3-3-3-3-3-3-3-3-3-3-3-3-3----------

Continue
E|-----------------------------------------------------------|
B|-----------------------------------------------------------|
G|-----------------------------------------------------------|
D|-----------------------------------------------------------|
A|--3-3-3-3-3-3-3-3-3-3-3-3-3-3-3-3-3-3-3-3-3-3-3-3----------|
E|--1-1-1-1-1-1-1-1-1-1-1-1-1-1-1-1-1-1-1-1-1-1-1-1----------|
There are probably more but I don't know how many

Chorus Part 3 Or Bridge 2: (I'll take what you're willing to give) part
E|----------------------------------------------------------------------------
B|----------------------------------------------------------------------------
G|---5-5-5-5-5-5-5-5-5-5-5-5-5-5-5-5--7-7-7-7-7-7-7-7-7-7-7-7-7-7-7-7---------
D|---x-x-x-x-x-x-x-x-x-x-x-x-x-x-x-x--x-x-x-x-x-x-x-x-x-x-x-x-x-x-x-x---------
A|---3-3-3-3-3-3-3-3-3-3-3-3-3-3-3-3--5-5-5-5-5-5-5-5-5-5-5-5-5-5-5-5---------
E|----------------------------------------------------------------------------
Continue
E|--------------------------------------------------------|
B|--------------------------------------------------------|
G|--------------------------------------------------------|
D|--------------------------------------------------------|
A|--3-3-3-3-3-3-3-3--5-5-5-5-5-5-5-5--7-7--9-9------------|
E|--1-1-1-1-1-1-1-1--3-3-3-3-3-3-3-3--5-5--7-7------------|

The second verse is just played as power chords: it goes: But I'm Not Sure... 
E|-----------------------------------------|
B|-----------------------------------------|
G|-----------------------------------------|
D|-----------3-3-3-3--5-5-5-5---3-3-3-3----|
A|--3-3-3-3--1-1-1-1--3-3-3-3---1-1-1-1----|
E|--1-1-1-1--------------------------------|

Interlude I think: (Where are you coming from)
E|----------------------------------------------------------------------------
B|----------------------------------------------------------------------------
G|----------------------------------------------------------------------------
D|------------------------------------7-7-7-7-7-7-7-7-7-7-7-7-7-7-7-7---------
A|---5-5-5-5-5-5-5-5-5-5-5-5-5-5-5-5--5-5-5-5-5-5-5-5-5-5-5-5-5-5-5-5---------
E|---3-3-3-3-3-3-3-3-3-3-3-3-3-3-3-3------------------------------------------

Continue
E|-----------------------------------------------------------------------------------
B|-----------------------------------------------------------------------------------
G|-----------------------------------------------------------------------------------
D|-----------------------------------------------------------------------------------
A|--3-3-3-3-3-3-3-3-3-3-3-3-3-3-3-3---5-5-5-5-5-5-5-5-5-5-5-5-5-5-5-5----------------
E|--1-1-1-1-1-1-1-1-1-1-1-1-1-1-1-1---3-3-3-3-3-3-3-3-3-3-3-3-3-3-3-3----------------

Continue
E|-----------------------------------------------------------------------------------
B|-----------------------------------------------------------------------------------
G|-----------------------------------------------------------------------------------
D|---7-7-7-7-7-7-7-7-7-7-7-7-7-7-7-7-------------------------------------------------
A|---5-5-5-5-5-5-5-5-5-5-5-5-5-5-5-5---3-3-3-3-3-3-3-3-3-3-3-3-3-3-3-3---------------
E|-------------------------------------1-1-1-1-1-1-1-1-1-1-1-1-1-1-1-1---------------

Continue
E--------------------------------------------------------
B--------------------------------------------------------
G--------------------------------------------------------
D--------------------------------------------------------
A--5-5-5-5-5-5-5-5-5-5-5-5-5-5-5-5-5-5-5-----------------
E--3-3-3-3-3-3-3-3-3-3-3-3-3-3-3-3-3-3-3-----------------
I think Tom does it more times but I don't know how many

Continue
E------------------------------------------|
B------------------------------------------|
G------------------------------------------|
D------------------------------------------|
A--7-7-7-7--9-9-9-9------------------------|
E--5-5-5-5--7-7-7-7------------------------|


            Enjoy
            
Hard to play? Try these video lessons and learn fast. | Correct




comments powered by Disqus
↑ Back to top | Tablatures and chords are parodies/interpretations of the original songs. You may use it for private study, scholarship, research or language learning purposes only