» » »

*Blink 182*, Anthem Tabs (ver.5)

Artists:  A B C D E F G H I J K L M N O P Q R S T U V W X Y Z # 

Anthem Tabs (ver.5)

*Blink 182* Tabs
Rating:
0/5 (0 votes)
Anthem lessons Tabs too difficult? Try these video lessons and learn fast
                (PartIi)
Intro: Play this 4X

e-----------------------------------------------------------------------------------------------------------------|
b--8-----8-----6-----6-----5-----5-----6-----6--------------------------------------------------------------|
g-----5-----5-----5-----5-----5-----5-----5-----5-----------------------------------------------------------|
d-----------------------------------------------------------------------------------------------------------------|
a-----------------------------------------------------------------------------------------------------------------|
E-----------------------------------------------------------------------------------------------------------------|

After Intro: 

e---------------------------------------------------------------------------------------|-------------------------|
b---------------------------------------------------------------------------------------|-------------------------|
g--------------------------------------------------------------Play this part 3 X-- |-------------------------| 
d------------0-h-3------------2-----------------------------Then play this>>> |----------0---------0-- | 
a--3---3-------------3---3-----------------------------------------------------------|--3---3-----3---3--- --|
E---------------------------------------------------------------------------------------|-------------------- -----|

Then play this:

e---------------------------------------------------------------- --|----------------------------------------------|
b---------------------------------------------------------------- --|----------------------------------------------|
g--9--10--9---5---7--------------------------------------------|----9---10---5------------------------------|
d--x---x---x--- x---x-----------------Play-that-3-times---  |----x----x----x------------------------------|
a--7---8---7---3---5----------------Then play this>>>>>|----7----8---3------------------------------|
E-------------------------------------------------------------------|----------------------------------------------|

Here the vocals and bass line play the verse  , then palm muted guitar part comes in:

e-----------------------------------------------------------------------------------------------------------------|
b-----------------------------------------------------------------------------------------------------------------|
g--5-------------------------------------------------------------------------------------------------------------|
d--5--14 times----7---------------1-------------------------------------------------------------------------|
a--3------------------5---6 times--3---6-times-----------------------------------------------------------|
E---------------------5---------------3-------------------------------------------------------------------------|

Bass plays a little solo

Chorus:

e-----------------------------------------------------------------------------------------------------------------|
b-----------------------------------------------------------------------------------------------------------------|
g-------------------------------5--5--5-------------------------------------------------------------------------|
d--2--2--2-----3--3--3----- 5--5--5------5---5---5--------------------Play  this twice----------------|
a--2--2--2-----3--3--3------3--3--3------5---5---5--------------------------------------------------------|
E--0--0--0-----1--1--1---------------------3---3---3------------------------------------------------- ------|

Play this for the last time:

e---------------------------------------------------------------------------------------|------------------------------------------------|
b---------------------------------------------------------------------------------------|------------------------------------------------|
g---------------------------------5---5---5-------------------------------------------|------------------------------------------------|
d--7---7---7----3---3---3-----5---5---5----5---5---5---then end with this|--7---7---7----- -3---3---3-----------------|
a--7---7---7----3---3---3-----3---3---3-----5--5---5------------------------   -|--7---7---7------3---3---3-----------------|
e--5---5---5----1---1---1---------------------3---3---3--------------------------|--5---5---5------1---1---1------------------|

Play this part again:

e---------------------------------------------------------------- --|----------------------------------------------|
b---------------------------------------------------------------- --|----------------------------------------------|
g--9--10--9---5---7--------------------------------------------|----9---10---5-----------------------------|
d--x---x---x--- x---x-----------------Play-that-3-times---  |----x----x----x------------------------------|
a--7---8---7---3---5----------------Then play this>>>>>|----7----8---3------------------------------|
E-------------------------------------------------------------------|----------------------------------------------|

Then the verse again:

e-----------------------------------------------------------------------------------------------------------------|
b-----------------------------------------------------------------------------------------------------------------|
g--5-------------------------------------------------------------------------------------------------------------|
d--5--14 times----7---------------1-------------------------------------------------------------------------|
a--3------------------5---6 times--3---6-times-----------------------------------------------------------|
E---------------------5---------------3-------------------------------------------------------------------------|

Then the chorus:

e-----------------------------------------------------------------------------------------------------------------|
b-----------------------------------------------------------------------------------------------------------------|
g-------------------------------5--5--5-------------------------------------------------------------------------|
d--2--2--2-----3--3--3----- 5--5--5------5---5---5--------------------Play  this twice----------------|
a--2--2--2-----3--3--3------3--3--3------5---5---5--------------------------------------------------------|
E--0--0--0-----1--1--1---------------------3---3---3------------------------------------------------- ------|

Play this part the same as the first time:

e---------------------------------------------------------------------------------------|------------------------------------------------|
b---------------------------------------------------------------------------------------|------------------------------------------------|
g---------------------------------5---5---5-------------------------------------------|------------------------------------------------|
d--7---7---7----3---3---3-----5---5---5----5---5---5---then end with this|--7---7---7----- -3---3---3-----------------|
a--7---7---7----3---3---3-----3---3---3-----5--5---5------------------------   -|--7---7---7------3---3---3-----------------|
e--5---5---5----1---1---1---------------------3---3---3--------------------------|--5---5---5------1---1---1------------------|

Bridge, bass plays here only:

Play the Chorus again, and the part after it, and end with this:

e---------------------------------------------------------------------------------------|-------------------------|
b---------------------------------------------------------------------------------------|-------------------------|
g--------------------------------------------------------------Play this part 3 X-- |----------------------- -| 
d------------0-h-3------------2-----------------------------Then play this>>> |----------0---------0-- | 
a--3---3-------------3---3-----------------------------------------------------------|--3---3-----3---3--- --|
E---------------------------------------------------------------------------------------|-------------------- -----|

And fade out to end!!.

Lyrics:

Verse:

Everything has fallen to pieces
Earth is dying help me jesus
We need guidence, weve been missled
Young and hostile, but not stupid.

Coprate leaders, polititions
Kids cant vote, Adults elect them
Laws that rule the school and workplace
Sings the caution, Sixteens unsafe.

Chorus:

We really need to, see this through
We never wanted, to be abused
We'l never give up, its no use
If were f**ked up, your to blame

Verse:

Let this train wreck burn more slowly
Kids are victims in this story
Drown the youth with usless warnings
Teenage rules are f**ked and boaring

Chorus:

Bridge:

Everything has fallen to pieces
Everything has falen to pieces
and so on

Chorus:
            

comments powered by Disqus
↑ Back to top | *Blink 182* Tabs for Anthem. Lyrics for acoustic guitar and electric guitar. Tablatures and chords are parodies/interpretations of the original songs. You may use it for private study, scholarship, research or language learning purposes only