» » »

Anthem Ii Tabs (ver.2)

Artists:  A B C D E F G H I J K L M N O P Q R S T U V W X Y Z # 

Anthem Ii Tabs (ver.2)

*Blink 182*
Rating:
0/5 (0 votes)

Hard to play? Try these video lessons and learn fast.
                

Intro 
e|----------------------------------------------|
b|---8--8--6--6--5--5--6--6---------------------|
g|----5--5--5--5--5--5--5--5--------------------|
D|----------------------------------------------|
A|----------------------------------------------|
E|----------------------------------------------|
This is the correct intro because in the urethra chronicles 2 this is how tom plays it.


Riff
e|----------------------------------------------|
b|----------------------------------------------|
g|----------------------------------------------|
D|----0h3----2---0h3--2—-0h3--2--0--0-----------|
A|-33-----33---33---33-33---33-33-33------------|
E|----------------------------------------------|
Yeah it does sound better this way

Pre-Verse
e|----------------------------------------------|
b|----------------------------------------------|
g|-9-10-957-9-10-957-9-10-957-9-10-9--777777--5-|
D|-x-x--xxx-x-x--xxx-x-x--xxx-x-x--x--xxxxxx--x-|
A|-7-8--735-7-8--735-7-8--735-7-8--7--555555--3-|
E|----------------------------------------------|

Bass (come in with guitar after the bass plays twice)

Verse (pm except on the first two chords)
e|---------------------------------------------------------------|
b|---------------------------------------------------------------|
g|-99-7-555555555555---------------55555555555-------------------|
D|-99-7-555555555555-777777-333333-55555555555-77777777---3333333|
A|-77-5-333333333333-777777-333333-33333333333-77777777---3333333|
E|-------------------555555-111111-------------55555555---1111111|
      PM_________________________________________________________|

Bass Fill (which can be played on guitar)

A|-----7----------5----------3----|
E|--5-----5---3------3---1--------|


Chorus (the first cords seems weird but just try it, its right)
The first chord can be played an E or C which ever you like better
e|----------------------------------------------|
b|----------------------------------------------|
g|-555-----5555---------------------------------|
D|-555-333-5555-5555----------------------------|
A|-333-333-3333-5555----------------------------|
E|-000-111------3333----------------------------|

Post Chorus pm (except the last chord) 
e|---------------------------------------------------------------|
b|---------------------------------------------------------------|
g|------------------5555555--------------------------------------|
D|-77777777-3333333-5555555-5555555-7777777-3--------------------|
A|-77777777-3333333-3333333-5555555-7777777-3--------------------|
E|-55555555-1111111---------3333333-5555555-1--------------------|
 PM________________________________________|


Order-

Intro
Riff
Pre-verse
Bass verse
Guitar verse
Bass Fill
Bass verse
Guitar verse
Bass Fill
Chorus
Post Chorus
Interlude (pre-verse)
Bass verse
Guitar verse
Bass Fill
Chorus
Post Chorus
Bridge
Chorus
Post Chorus
Riff

For the outro you can play the inrto instead if you want the live way.
This is perfect, until next time later

( . )( . )

Hey FAH-Q Zink
            
Hard to play? Try these video lessons and learn fast. | Correct




comments powered by Disqus
↑ Back to top | Tablatures and chords are parodies/interpretations of the original songs. You may use it for private study, scholarship, research or language learning purposes only