» » »

*Blink 182*, Anthem Tabs (ver.15)

Artists:  A B C D E F G H I J K L M N O P Q R S T U V W X Y Z # 

Anthem Tabs (ver.15)

*Blink 182* Tabs
Rating:
0/5 (0 votes)
Anthem lessons Tabs too difficult? Try these video lessons and learn fast
                
Intro
e|---------------------------------------------------|
B|---------------------------------------------------|
G|-4-4-4-4-4----4-4-4-4-4----8-8-8-8-8----8-8-8-8-8--|
D|-x-x-x-x-x----x-x-x-x-x----x-x-x-x-x----x-x-x-x-x--|
A|-2-2-2-2-2----2-2-2-2-2----6-6-6-6-6----6-6-6-6-6--|
E|---------------------------------------------------|

Gtr. 2 playing in backround
e|---------------------------------------------------|
B|---------------------------------------------------|
G|-4-4-4-4-4----4-4-4-4-4----4-4-4-4-4----4-4-4-4-4--|
D|-4-4-4-4-4----4-4-4-4-4----4-4-4-4-4----4-4-4-4-4--|
A|-2-2-2-2-2----2-2-2-2-2----2-2-2-2-2----2-2-2-2-2--|
E|---------------------------------------------------|

e|---------------------------------------------------|
B|---------------------------------------------------|
G|-9-9-9-9-9----6-6-6-6-6----9-9-9-9-9----6-6-6-6-6--|
D|-x-x-x-x-x----x-x-x-x-x----x-x-x-x-x----x-x-x-x-x--|
A|-7-7-7-7-7----4-4-4-4-4----7-7-7-7-7----4-4-4-4-4--|
E|---------------------------------------------------|

e|---------------------------------------------------|
B|---------------------------------------------------|
G|-4-4-4-4-4-----------------4-4-4-4-4---------------|
D|-4-4-4-4-4----4-4-4-4-4----4-4-4-4-4----4-4-4-4-4--|
A|-2-2-2-2-2----4-4-4-4-4----2-2-2-2-2----4-4-4-4-4--|
E|--------------2-2-2-2-2-----------------2-2-2-2-2--|

e|------------------------------------------------------------
B|------------------------------------------------------------
G|------------------------------------------------------------
D|-6-6-6-6-6-6-6-6-4-4-4-4-4-4-4-4-4-2-2-2-2-2-2-4-4-4-4-4-4--
A|-6-6-6-6-6-6-6-6-4-4-4-4-4-4-4-4-4-2-2-2-2-2-2-4-4-4-4-4-4--
E|-4-4-4-4-4-4-4-4-2-2-2-2-2-2-2-2-2-0-0-0-0-0-0-2-2-2-2-2-2--

e|------------------------------------------------------------
B|------------------------------------------------------------
G|-4-4-4-4-4-4---4-4-4-4-4-4----4-4-4-4-4-4-------------------
D|-4-4-4-4-4-4---4-4-4-4-4-4----4-4-4-4-4-4------2------------
A|-2-2-2-2-2-2---2-2-2-2-2-2----2-2-2-2-2-2------2------------
E|-----------------------------------------------0------------

e|----------------------------------------------------------------------------------------------
B|----------------------------------------------------------------------------------------------
G|-4-4-4-4-4-4-4-4-4-4-4-4-8-8-8-8-8-8-8-8-8-8-8-8-4-4-4-4-4-4-4-4-4-4-4-4-4-4-4-4-4-4-4-4-4-4--
D|-x-x-x-x-x-x-x-x-x-x-x-x-x-x-x-x-x-x-x-x-x-x-x-x-4-4-4-4-4-4-4-4-4-4-4-4-4-4-4-4-4-4-4-4-4-4--
A|-2-2-2-2-2-2-2-2-2-2-2-2-6-6-6-6-6-6-6-6-6-6-6-6-2-2-2-2-2-2-2-2-2-2-2-2-2-2-2-2-2-2-2-2-2-2--
E|----------------------------------------------------------------------------------------------

e|---------------------------------------------------------------------------------
B|---------------------------------------------------------------------------------
G|-9-9-9-9-9-9-9-6-6-6-6-6-6-9-9-9-9-9-9-6-6-6-6-6-6-6-4-4-4-4-4-4-4---------------
D|-x-x-x-x-x-x-x-x-x-x-x-x-x-x-x-x-x-x-x-x-x-x-x-x-x-x-4-4-4-4-4-4-4-4-4-4-4-4-4-4-
A|-7-7-7-7-7-7-7-4-4-4-4-4-4-7-7-7-7-7-7-4-4-4-4-4-4-4-2-2-2-2-2-2-2-4-4-4-4-4-4-4-
E|-------------------------------------------------------------------2-2-2-2-2-2-2-

e|------------------------------|
B|------------------------------|
G|-4-4-4-4-4-4-4----------------|
D|-4-4-4-4-4-4-4-4-4-4-4-4-4-4--|
A|-2-2-2-2-2-2-2-4-4-4-4-4-4-4--|
E|---------------2-2-2-2-2-2-2--|

e|-----------------------------------------------------|
B|-----------------------------------------------------|
G|-----------------------------------------------------|
D|-6-6-6-6-6-6-4-4-4-4-4-4-2-2-2-2-2-2-4-4-4-4-4-4-----|
A|-6-6-6-6-6-6-4-4-4-4-4-4-2-2-2-2-2-2-4-4-4-4-4-4-----|
E|-4-4-4-4-4-4-2-2-2-2-2-2-0-0-0-0-0-0-2-2-2-2-2-2-----|
                                                   P.M..
e|----------------------------------------------------------------
B|----------------------------------------------------------------
G|-4-4-4-4-4-4-4-4-4-4-4-4-------------------------------4-4-4----
D|-4-4-4-4-4-4-4-4-4-4-4-4-4-4-4-4-4-4-4-4-4-4-4-4-------4-4-4----
A|-2-2-2-2-2-2-2-2-2-2-2-2-4-4-4-4-4-4-4-4-4-4-4-4-------2-2-2----
E|-------------------------2-2-2-2-2-2-2-2-2-2-2-2-2-2-2----------

e|-------------------------------------------------------------
B|-------------------------------------------------------------
G|-4-4-4-4-4-4-------------------------4-4-4-4-4-4-4-4-4-4-4-4-
D|-4-4-4-4-4-4-2-2-2-2-2-2-2-2-2-2-2-2-4-4-4-4-4-4-4-4-4-4-4-4-
A|-2-2-2-2-2-2-2-2-2-2-2-2-2-2-2-2-2-2-2-2-2-2-2-2-2-2-2-2-2-2-
E|-------------0-0-0-0-0-0-0-0-0-0-0-0-------------------------

e|----------------------------------------------------------------------------
B|----------------------------------------------------------------------------
G|---------------------------4-4-4-4-4-4-4-4-4-4-4----------------------------
D|-4-4-4-4-4-4-4-4-4-4-4-4-4-4-4-4-4-4-4-4-4-4-4-4-2-2-2-2-2-2-2--2-2-2-2-2-2-
A|-4-4-4-4-4-4-4-4-4-4-4-4-4-2-2-2-2-2-2-2-2-2-2-2-2-2-2-2-2-2-2--2-2-2-2-2-2-
E|-2-2-2-2-2-2-2-2-2-2-2-2-2-----------------------0-0-0-0-0-0-0--0-0-0-0-0-0-

e|--------------------------------------------------|
B|--------------------------------------------------|
G|--------------------------------------------------|
D|-6-6-6-6-6-6-6-6-6-6-6-6-6-4-4-4-4-4-4-4-4-4-4-4--|
A|-6-6-6-6-6-6-6-6-6-6-6-6-6-4-4-4-4-4-4-4-4-4-4-4--|
E|-4-4-4-4-4-4-4-4-4-4-4-4-4-2-2-2-2-2-2-2-2-2-2-2--|

e|----------------|------------------------|------------------|---------------------|
B|----------------|------------------------|------------------|---------------------|
G|----------------|------------------------|------------------|---------------------|
D|-1------------4-|----1-------------------|-1------------4---|-1-------------------|
A|--------2-------|------------2-----------|---------2--------|------------------2--|
E|----------------|--------------------0---|------------------|--------0------------|

             x2
e|------------------------------------------------------------------------------------------------------------|
B|------------------------------------------------------------------------------------------------------------|
G|------------------------------------------------------------------------------------------------------------|
D|-----1------1------4-----4------1------1------4------4------------------------------------------------------|
A|-2-2----2-2----2-2---2-2----2-2----2-2----2-2----2-2--------2------2------4------4-----2------2------4-----4|
E|--------------------------------------------------------0-0----0-0----2-2----2-2---0-0----0-0----2-2---2-2--|

e|-----------------------|----------------|---------------|------------------------|
B|-----------------------|----------------|---------------|------------------------|
G|-----------------------|----------------|---------------|------------------------|
D|-4-4-4-4-4-4--1----4---|----1-----------|-----------1---|-1--(1)-2h--------------|
A|-4-4-4-4-4-4----2------|--------2-------|---------------|--------------4---------|
E|-2-2-2-2-2-2-----------|------------0---|--2----4-------|------------------------|
            

comments powered by Disqus
↑ Back to top | *Blink 182* Tabs for Anthem. Lyrics for acoustic guitar and electric guitar. Tablatures and chords are parodies/interpretations of the original songs. You may use it for private study, scholarship, research or language learning purposes only