» » »

*Blink 182*, Anthem Bass tabs (ver.7)

Artists:  A B C D E F G H I J K L M N O P Q R S T U V W X Y Z # 

Anthem Bass tabs (ver.7)

*Blink 182* Tabs
Rating:
0/5 (0 votes)
Anthem lessons Tabs too difficult? Try these video lessons and learn fast
                Blink 182
Anthem
Enema of the State

Tuning:Standard EADG


Intro: Guitar and drums

Verse: (when tom starts singing)

G|-------------------------------------------------------------------------|
D|-------------------------------------------------------------------------|
A|22222-22222-22222-22222--------------------------------------------------|
E|------------------------00000-22222-00000-22222--------------------------|

G|-------------------------------------------------------------------------|
D|-------------------------------------------------------------------------|
A|22222-22222-22222-4444-6666-77777-99999-77777-99999----------------------|
E|-------------------------------------------------------------------------|

Chorus:

G|-------------------------------------------------------------------------|
D|------------9-9---------------9-9-11-11---------9-9-------------9-9-11-11|
A|11-11-11-11-----11-11-9-9-9-9-----------7-7-7-7-----7-7-9-9-9-9----------|
E|-------------------------------------------------------------------------|

Bridge:

G|-------------------------------------------------------------------------|
D|-------------------------------------------------------------------------|
A|22222-22222-22222--------------------------------------------------------|
E|------------------0~-----------------------------------------------------|

Verse 2: the notes and format are the same as the first verse but the notes are played 
more times cuz the song gets faster.

Chorus (This also gets faster)

Interlude

G|-------------------------------------------------------------------------|
D|---------------------------------------------------------------(x2)------|
A|2-222-2222-2-2-22-------------------2-222-2222-2-2-22--------------------|
E|------------------0-000-0000-0-0-00-------------------2-222-2222-2-2-XXX-|


"i time bomb"
G|-------------------------------------------------------------------------|
D|-------------------------------------------------------------------------|
A|2-(x16)------------------------------------------------------------------|
E|--------0-(x16)-4-(x16)-2-(x16)------------------------------------------|

G|-------------------------------------------------------------------------|
D|-------------------------------------------------------------------------|
A|2-(x16)------------------------------------------------------------------|
E|--------0-(x16)-2-(x16)-0-(x16)------------------------------------------|

Bass "Solo"

G|---8----8----11----11----8----8----11----11------------------------------|
D|99---99---99----99----99---99---99----99------9--9--11--11--9--9--11--11-|
A|--------------------------------------------77-77-99--99--77-77-99--99---|
E|-------------------------------------------------------------------------|

Chorus

Interlude w/o bass solo

it may not be 100%, but its pretty damn good
enjoy
            

comments powered by Disqus
↑ Back to top | *Blink 182* Bass for Anthem. Lyrics for acoustic guitar and electric guitar. Tablatures and chords are parodies/interpretations of the original songs. You may use it for private study, scholarship, research or language learning purposes only