>
 >
A New Hope 3

A New Hope 3 Guitar Tabs

*Blink 182* - A New Hope 3 chords, tabs, tablatures, lyrics

Guitar lessons | Add/correct | Request | Top 50 tabs Artists:  A B C D E F G H I J K L M N O P Q R S T U V W X Y Z 0-9

A New Hope 3 Guitar Tabs – *Blink 182*

CD, Sheet music, Poster

Do you like A New Hope 3? Share with your friends now
Bass TabsBass Tabs v2Bass Tabs v3Bass Tabs v4Bass Tabs v5ChordsDrum TabsTabsTabs v2Tabs v3Tabs v4
So I've seen a bunch of other tabs for this song, and none of them sound quite 
right.  I decided to try one of my own.  The rhythm I tabbed out is just how I 
hear it.  Listen to the song to find your own strumming pattern, find out how many 
times each part is played, and find out where the palm-mutes are.  This is my first tab! Enjoy!

Intro-Rhythm guitar:

e|--------|
B|--------|
G|--------|
D|-5~~----| Let it ring
A|-5~~----|
E|-3~~----|

Intro-Lead guitar:

e|----------------------------------------------------------------------------|
B|-8-88-88--8-88-88--8-88-88--7-77-77--8-88-88--8-88-88--8-88-88--7-77-77-----|
G|-0-00-00--0-00-00--0-00-00--0-00-00--5-55-55--5-55-55--7-77-77--7-77-77-----|
D|----------------------------------------------------------------------------| 
A|----------------------------------------------------------------------------|
E|----------------------------------------------------------------------------|

***Drums come in***

Intro-Rhythm guitar:

e|--------------------------------------------------------------------------------------|
B|--------------------------------------------------------------------------------------|
G|--------------------------------------------2222-222--2222-222--5555-555--7777-777----|
D|-5555-555---5555-555---5555-555---5555-555--2222-222--2222-222--5555-555--7777-777----|
A|-5555-555---5555-555---5555-555---5555-555--0000-000--0000-000--3333-333--5555-555----|
E|-3333-333---3333-333---3333-333---3333-333--------------------------------------------|

Intro-Lead guitar: stays the same

e|----------------------------------------------------------------------------|
B|-8-88-88--8-88-88--8-88-88--7-77-77--8-88-88--8-88-88--8-88-88--7-77-77-----|
G|-0-00-00--0-00-00--0-00-00--0-00-00--5-55-55--5-55-55--7-77-77--7-77-77-----|
D|----------------------------------------------------------------------------| 
A|----------------------------------------------------------------------------|
E|----------------------------------------------------------------------------|

Verse:

e|-------------------------------------------------------------------------------------|
B|-----------------------------------------------------------------88-8-888-77-7-777---|
G|-----------5557-777-------------5557-777-------------5555-7777---00-0-000-00-0-000---|
D|-55555555--5557-777---55555555--5557-777---22222222--5555-7777-----------------------|
A|-55555555--3335-555---55555555--3335-555---22222222--3333-5555-----------------------|
E|-33333333-------------33333333-------------00000000----------------------------------|

e|----------------------------------------------------------------------------------------------|
B|-----------------------------------------------------------------88-8-888-7-------------------|
G|-----------5557-777-------------5557-777-------------5555-7777---00-0-000-0--**pick-slide**---|
D|-55555555--5557-777---55555555--5557-777---22222222--5555-7777--------------------------------|
A|-55555555--3335-555---55555555--3335-555---22222222--3333-5555--------------------------------|
E|-33333333-------------33333333-------------00000000-------------------------------------------|

Chorus:

e|------------------------------------------------------------------------|
B|------------------------------------------------------------------------|
G|--2222--222---2222--222---5555--555---5555--555-------------------------|
D|--2222--222---2222--222---5555--555---5555--555-------------------------|
A|--0000--000---0000--000---3333--333---3333--333---55--555-----55--555---|
E|--------------------------------------------------33--333-5---33--333-2-|

e|---------------------------------------------------|
B|---------------------------------------------------|
G|--2222--222---2222--222---5555--555---7777--777----|
D|--2222--222---2222--222---5555--555---7777--777----|
A|--0000--000---0000--000---3333--333---5555--555----|
E|---------------------------------------------------|

Bridge #1:

e|-----------|----------------------------------------------------------|
B|-----------|----0h3----0h3----0h3----0-----1p0----1p0----1p0----0-----|
G|-----------|-00-----00-----00-----00-----00-----00-----00-----00------|
D|--55555555-|----------------------------------------------------------|
A|--55555555-|----------------------------------------------------------|
E|--33333333-|----------------------------------------------------------|

e|----------------------------------------------------------|
B|----0h3----0h3----0h3----0-----1p0----1p0----0h1----0-----|
G|-00-----00-----00-----00-----00-----00-----00-----00------|
D|----------------------------------------------------------|
A|----------------------------------------------------------|
E|----------------------------------------------------------|

Bridge#1-Rhythm guitar:

e|--------------------------------------------------------------------------------------|
B|--------------------------------------------------------------------------------------|
G|--------------------------------------------2222-222--2222-222--5555-555--7777-777----|
D|-5555-555---5555-555---5555-555---5555-555--2222-222--2222-222--5555-555--7777-777----|
A|-5555-555---5555-555---5555-555---5555-555--0000-000--0000-000--3333-333--5555-555----|
E|-3333-333---3333-333---3333-333---3333-333--------------------------------------------|


Bridge #2:

e|--------------------------------------------|--------------------------------------------|
B|--------------------------------------------|--------------------------------------------|
G|-------------77-777-7--55-555-5--99-9-77-7--|-------------77-777-7--55544455--99-9-77-7--|
D|--55--555-5---------------------------------|--55--555-5---------------------------------|
A|--55--555-5--55-555-5--33-333-3--77-7-55-5--|--55--555-5--55-555-5--33322233--77-7-55-5--|
E|--33--333-3---------------------------------|--33--333-3---------------------------------|

e|--------------------------------------------|--------------------------------------------|
B|--------------------------------------------|--------------------------------------------|
G|-------------77-777-7--55-555-5--99-9-77-7--|-------------77-777-7--55555555--9----------|
D|--55--555-5---------------------------------|--55--555-5---------------------------------|
A|--55--555-5--55-555-5--33-333-3--77-7-55-5--|--55--555-5--55-555-5--33333333--7----------|
E|--33--333-3---------------------------------|--33--333-3---------------------------------|

Ends on:

e|--------|
B|--------|
G|--------|
D|-5~~----| Let it ring
A|-5~~----|
E|-3~~----|


Order of parts:

Intro
Intro (with rhythm guitar and drums)
Verse
Chorus
Intro (once without rhythm and drums, once with rhythm guitar and drums)
Verse
Chorus
Bridge #1 (with rhythm guitar)
Bridge #2
Chorus (there are a few variations, pay attention to those)
End





Comments


Popular *Blink 182* tabs & chords
Anthem 3 Bass Tabs
Carousel 12 Bass Tabs
Dont Leave Me 2 Bass Tabs
Reckless Abandon Bass Tabs
Adams Song 4 Chords
Enthused Drum Tabs
Feeling This 3 Tabs
First Date Intro And Chorus Tabs
Happy Holidays, You Bastard 1 Tabs
Peggy Sue Tabs


Song lyrics



↑ Back to top | Tablatures and chords are parodies/interpretations of the original songs. You may use it for private study, scholarship, research or language learning purposes only
© 2014 AZChords.com Contact us | Privacy policy | DMCA | Add/correct tabs | Request tabs | Top 50 tabs