» » »

*Blink 182*, American Pie Theme Song Bass tabs (ver.2)

Artists:  A B C D E F G H I J K L M N O P Q R S T U V W X Y Z # 

American Pie Theme Song Bass tabs (ver.2)

*Blink 182* Tabs
 Rating:
4/5 (4 votes)
American Pie Theme Song lessons Tabs too difficult? Try these video lessons and learn fast
1
                This is right, Everyone tabs it wrong
I watched him at a concert, and this is how he plays it

Intro

G:---9--9--9--9--9--9--9--9///2--2--2--2--2--2--2--2
D:-77-77-77-77-77-77-77-77--00-00-00-00-00-00-00-00-
A:------------------------------------------------------------------------
E:------------------------------------------------------------------------

Intro 2
G:---------------------------------------------------------------------------------------------
D:---------------------------------------------------------------------------------------------
A:-0-0000-00-0000-00-0000-222-444-5-5555-55-5555-55-5555-999-777
E:---------------------------------------------------------------------------------------------

Intro 2(cont.)
G:---------------------------------------------------------------------------------------------------
D:---------------------------------------------------------------------------------------------------
A:-0-0000-00-0000-00-0000-222-444-5-5555-55-5555-55-5555-77777-55555
E:----------------------------------------------------------------------------------------------------

Verse part.1
G:--------------------------------------
D:--------------------------------------
A:---------------------------------------        
E:55555555-22222-00000-------

Verse part. 2                         (oh..yeaahhhh, they don't even care at all)
G:--------------------------------
D:--------------------------------
A:--------2----------------------- 2x with out the a:----2----- then 3x with it    
E:55555555--22222-00000-----------

Interlude
G:---------------------------------------------------------------------------------------------
D:---------------------------------------------------------------------------------------------
A:-0~222-444-5-5555-55-5555-55-5555-999-777-------------------------------
E:---------------------------------------------------------------------------------------------

Interlude (cont.)
G:---------------------------------------------------------------------------------------------------
D:---------------------------------------------------------------------------------------------------
A:-0~222-444-5-5555-55-5555-55-5555-77777-55555-------------------------------
E:----------------------------------------------------------------------------------------------------


Riff # 4
G:-------------------------------------------------------
D:-----------------------------4-----------
A:-0-00-77h9p7-0-00-77h9p7-222-2\555/444
E:-------------------------------------------------------

Interlude 2
G:---------------
D:---------------
A:00-22-55-44-00-22-55-44
E:---------------


Riff # 4
G:----------------------------------------
D:----------------------------4-----------
A:-0-00-77h9p7-0-00-77h9p7-222-2\555/444--
E:----------------------------------------

Outro
G:---------------
D:---------------
A:0~-2~-5~-4~-
E:---------------
            
Submit corrections

comments powered by Disqus
↑ Back to top | *Blink 182* Bass for American Pie Theme Song. Lyrics for acoustic guitar and electric guitar. 1 Tablatures and chords are parodies/interpretations of the original songs. You may use it for private study, scholarship, research or language learning purposes only