» » »

*Blink 182*, Always Tabs (ver.9)

Artists:  A B C D E F G H I J K L M N O P Q R S T U V W X Y Z # 

Always Tabs (ver.9)

*Blink 182* Tabs
Rating:
0/5 (0 votes)
Always lessons Tabs too difficult? Try these video lessons and learn fast
                Blink 182
Always (Acoustic)

Verse
(Strumming down,down,down,down,down,down,down,down)
e----------------------------------------|
B----------------------------------------|
G----------------------------------------|
D-44444444-44444444-66666666-22222222----|
A-22222222-44444444-66666666-22222222----|
E----------------------------------------|

Bridge
(Strumming down,down,up,up,down,up)
e----------------------------------------|
B----------------------------------------|
G-4--4--4--4-----------------------------|
D-4--4--4--4-----------------------------|
A-2--4--x--------------------------------|
E-------4--x-----------------------------|

Chorus
(Strumming down,down,up,up,down,up)
e----------------------------------------|
B----------------------------------------|
G-2--8-----------------------------------|
D-2--8--6--2-----------------------------|
A-4--6--6--2-----------------------------|
E-------4--------------------------------|

Interlude
e----------------------------------------|
B----------------------------------------|
G----4-----4-----4-----------------------|
D---4-4---4-4---4-4--4-4-----------------|
A-22----44----------0-0------------------|
E-------------44-------------------------|
            

comments powered by Disqus
↑ Back to top | *Blink 182* Tabs for Always. Lyrics for acoustic guitar and electric guitar. Tablatures and chords are parodies/interpretations of the original songs. You may use it for private study, scholarship, research or language learning purposes only