» » »

*Blink 182*, Always Tabs (ver.5)

Artists:  A B C D E F G H I J K L M N O P Q R S T U V W X Y Z # 

Always Tabs (ver.5)

*Blink 182* Tabs
 Rating:
4/5 (4 votes)
Always lessons Tabs too difficult? Try these video lessons and learn fast
                Band: Blink 182

This is a great song, enjoi!

Intro
e|-----------22222222---44444444---00000000----------------------------
B|-44444444--22222222---44444444---00000000----------------------------
G|-44444444--33333333---55555555---11111111----------------------------
D|-44444444--44444444---66666666---22222222----------------------------
A|-22222222--44444444---66666666---22222222----------------------------
E|-----------22222222---44444444---00000000----------------------------

verse
e|----------------------4444444444444444-------------------------------
B|-4444444444444444-----4444444444444444-------------------------------
G|-4444444444444444-----5555555555555555-------------------------------
D|-4444444444444444-----6666666666666666-------------------------------
A|-2222222211111111-----6666666666666666-------------------------------
E|----------------------4444444444444444-------------------------------


Pre Chorus x2
E|---------------------------------------------------------------------
B|------4---4---------4---4------4---4------4---4----------------------
G|----4---4---------4---4------4---4------4---4------------------------
D|---------------------------------------------------------------------
A|-2-----------4-------------------------------------------------------
E|---------------------------4----------0------------------------------

Chorus x2
E|---------------------444444---000000---------------------------------
B|---444444---888888---444444---000000---------------------------------
G|---444444---888888---555555---111111---------------------------------
D|---444444---888888---666666---222222---------------------------------
A|---222222---666666---666666---222222---------------------------------
E|---------------------444444---000000---------------------------------

Post chorus x2
E|---------------------------------------------------------------------
B|------4---4---------4---4------4---4------4---4----------------------
G|----4---4---------4---4------4---4------4---4------------------------
D|---------------------------------------------------------------------
A|-2-----------4-------------------------------------------------------
E|---------------------------4----------0------------------------------

Verse
E|---------------------------------------------------------------------
B|---------------------------------------------------------------------
G|---------------------------------------------------------------------
D|---------------------------------------------------------------------
A|--6------6---4-----4--6---------------------------------------
E|----7-----------6---------4--2--4-----------------------------
Pre Chorus x4
E|---------------------------------------------------------------------
B|------4---4---------4---4------4---4------4---4----------------------
G|----4---4---------4---4------4---4------4---4------------------------
D|---------------------------------------------------------------------
A|-2-----------4-------------------------------------------------------
E|---------------------------4----------0------------------------------
Chorus x4
E|---------------------444444---000000---------------------------------
B|---444444---888888---444444---000000---------------------------------
G|---444444---888888---555555---111111---------------------------------
D|---444444---888888---666666---222222---------------------------------
A|---222222---666666---666666---222222---------------------------------
E|---------------------444444---000000---------------------------------

Bridge x2
E|---------------------------------------------------------------------
B|-44444444--66666666--444444444--8888---444--------------------------
G|-44444444--66666666--444444444--8888---444--------------------------
D|-44444444--66666666--444444444--8888---444--------------------------
A|-22222222--44444444--222222222--6666---222--------------------------
E|---------------------------------------------------------------------

Breakdown 
E|---------------------------------------------------------------------
B|---------------------------------------------------------------------
G|---------------------------------------------------------------------
D|---------------------------------------------------------------------
A|--6~~--4~~--2~~------2---4------6~~--4~~--2~~------2---4-------------
E|---------------------------------------------------------------------
Chorus x4
E|---------------------444444---000000---------------------------------
B|---444444---888888---444444---000000---------------------------------
G|---444444---888888---555555---111111---------------------------------
D|---444444---888888---666666---222222---------------------------------
A|---222222---666666---666666---222222---------------------------------
E|---------------------444444---000000---------------------------------

Outro x8 
E|---------------------------------------------------------------------
B|-4---4---4---4-5-----------------------------------------------------
G|---4---4---4---------------------------------------------------------
D|---------------------------------------------------------------------
A|---------------------------------------------------------------------
E|---------------------------------------------------------------------

Keyboard synth part x2 (transcribed to guitar) 
E|--11~--9~--7~-----11~--9~--7~---11~--9~--7~---12-11----7~--9~--------
B|---------------------------------------------------------------------
G|---------------------------------------------------------------------
D|---------------------------------------------------------------------
A|---------------------------------------------------------------------
E|---------------------------------------------------------------------

Finnish on 
E|---------------------------------------------------------------------
B|-4~-----------------------------------------------------
G|-4~-----------------------------------------------------------
D|-4~------------------------------------------------------------------
A|-2~------------------------------------------------------------------
E|---------------------------------------------------------------------

This is my first tab, I think its correct, have fun!
            
Submit corrections

comments powered by Disqus
↑ Back to top | *Blink 182* Tabs for Always. Lyrics for acoustic guitar and electric guitar. Tablatures and chords are parodies/interpretations of the original songs. You may use it for private study, scholarship, research or language learning purposes only