» » »

*Blink 182*, All Of The Small Things Tabs (ver.6)

Artists:  A B C D E F G H I J K L M N O P Q R S T U V W X Y Z # 

All Of The Small Things Tabs (ver.6)

*Blink 182* Tabs
 Rating:
4/5 (4 votes)
All Of The Small Things lessons Tabs too difficult? Try these video lessons and learn fast
                (Live)
LIVE VERSION OF ALL THE SMALL THINGS:
THE WAY THEY ACTUALY PLAY IT
Intro
E|------------
B|------------
G|------------
D|-5-3--------
A|-5-3--------
E|-3-1--------

Next intro thing        play twice
E|------------------------------------------------
B|----------66666666------------------------------
G|-55555555-55555555------------------------------
D|-55555555-55555555-55555555-xxx-333-------------
A|-33333333-33333333-55555555-xxx-333-------------
E|-------------------33333333-xxx-111-------------

Verse (plam mute) play 4 times
E|------------------------------------------------
B|------------------------------------------------
G|-55555555---------------------------------------
D|-55555555-55555555-33333333-55555555------------
A|-33333333-55555555-33333333-55555555------------
E|----------33333333-11111111-33333333------------

Chorus
E|------------------------------------------------
B|------------------------------------------------
G|-(5)5--------------5----------------------------
D|-(5)5--------------5----------------------------
A|-(3)3--------------3----------------------------
E|--------(play above note semi-plam muted on "go")

After Chorus (na-na-na part) play twice
E|------------------------------------------------
B|------------------------------------------------
G|-555555555555555--------------------------------
D|-555555555555555-55555555-33333333--------------
A|-333333333333333-55555555-33333333--------------
E|-----------------33333333-11111111--------------


E|------------------------------------------------
B|------------------------------------------------
G|-55555555-10101010-9999-777777777---------------
D|-55555555-xxxxxxxx-xxxx-777777777-xxx-333-------
A|-33333333-8 8 8 8 -7777-555555555-xxx-333-------
E|----------------------------------xxx-111-------

Verse (plam mute)    play twice
E|------------------------------------------------
B|------------------------------------------------
G|-55555555---------------------------------------
D|-55555555-55555555-33333333-55555555------------
A|-33333333-55555555-33333333-55555555------------
E|----------33333333-11111111-33333333------------


Chorus
E|------------------------------------------------
B|------------------------------------------------
G|-(5)5--------------5----------------------------
D|-(5)5--------------5----------------------------
A|-(3)3--------------3----------------------------
E|--------(play above note semi-plam muted on "go")

After Chorus (na-na-na part) play twice
E|------------------------------------------------
B|------------------------------------------------
G|-555555555555555--------------------------------
D|-555555555555555-55555555-33333333--------------
A|-333333333333333-55555555-33333333--------------
E|-----------------33333333-11111111--------------

Interlude (PLAM MUTED)
E|---------------------------------------------------------
B|----------------2-2-3-3------(CHORDS HEAVY PALM-MUTED)---
G|-5------5-5-5-5--5-5-5-5-----------------55555555-7777777
D|-5--3----5-5-5-5---------555555555555555-55555555-5555555
A|-3--3--------------------555555555555555-33333333-5555555
E|----1--------------------333333333333333-----------------

OUTRO 
E|------------------------------------------------
B|------------------------------------------------
G|-555555555555555--------------------------------
D|-555555555555555-55555555-33333333--------------
A|-333333333333333-55555555-33333333--------------
E|-----------------33333333-11111111--------------

E|------------------------------------------------
B|------------------------------------------------
G|-555555555555555--------------------------------
D|-555555555555555-55555555-33333333--------------
A|-333333333333333-55555555-33333333--------------
E|-----------------33333333-11111111--------------

E|------------------------------------------------
B|------------------------------------------------
G|-555555555555555--------------------------------
D|-555555555555555-55555555-xx-3-xx-3-------------
A|-333333333333333-55555555-xx-3-xx-3-------------
E|-----------------33333333-xx-1-xx-1-------------


E|------------------------------------------------
B|------------------------------------------------
G|-555555555555555------------------------------5-
D|-555555555555555-55555555-xx-3-xx-3-xx-3-xx-3-5-
A|-333333333333333-55555555---------------------3-
E|-----------------33333333-----------------------


that's it. it's right. just play it. e-mail me with comments:
            
Submit corrections

comments powered by Disqus
↑ Back to top | *Blink 182* Tabs for All Of The Small Things. Lyrics for acoustic guitar and electric guitar. Tablatures and chords are parodies/interpretations of the original songs. You may use it for private study, scholarship, research or language learning purposes only