» » »

*Blink 182*, All Of The Small Things Bass tabs (ver.7)

Artists:  A B C D E F G H I J K L M N O P Q R S T U V W X Y Z # 

All Of The Small Things Bass tabs (ver.7)

*Blink 182* Tabs
 Rating:
4/5 (4 votes)
All Of The Small Things lessons Tabs too difficult? Try these video lessons and learn fast
                All the small things

Intro

G---------------------------------------------| x2
D-----------444444444-------------------------|
A-333333333-----------------------------------|
E---------------------55555555-xxxxxxxx-3333--|

Verse 1

G---------------------------------------|
D---------------------------------------|
A-333333333-----------------------------| x4
E-----------55555555-33333333-55555555--|

Pre chorus

G--------------------------------------------|
D--------------------------------------------|
A-3333333333333333-1010101010101010-88888888-|
E--------------------------------------------|

Chorus

G-------------------------------------|
D-------------------------------------|
A-3333333333333333--------------------| x2
E------------------33333333-11111111--|

G--------------------------------------|
D----------44443333--------------------| x2
A-33333333-----------------------------|
E-------------------55555555-XXXXXXXX--|

Verse 2

G---------------------------------------|
D---------------------------------------|
A-333333333-----------------------------| x2
E-----------55555555-33333333-55555555--|


Pre chorus

G--------------------------------------------|
D--------------------------------------------|
A-3333333333333333-1010101010101010-88888888-|
E--------------------------------------------|


Chorus

G-------------------------------------|
D-------------------------------------|
A-3333333333333333--------------------| x2
E------------------33333333-11111111--|


Interlude

G-------------------|
D-------------------|
A-3----------8--10--| x3
E-------------------|

G------------------------------------|
D------------------------------------|
A-33333333-88888888-1010101010101010-|
E------------------------------------|

Chorus

G------------------------------------|
D------------------------------------|
A-3333333333333333-------------------|
E------------------33333333-11111111-|

Outro
G------------------------------------------|
D------------------------------------------|
A-3333333333333333-------------------------| x2
E------------------33333333-x-x-1---x-x-1--|

G--------------------|
D--------------------|
A------------------3-|
E-x-x-3-x-x-3-x-x-3--|
            
Submit corrections

comments powered by Disqus
↑ Back to top | *Blink 182* Bass for All Of The Small Things. Lyrics for acoustic guitar and electric guitar. Tablatures and chords are parodies/interpretations of the original songs. You may use it for private study, scholarship, research or language learning purposes only