» » »

*Blink 182*, All Of The Small Things Tabs (ver.13)

Artists:  A B C D E F G H I J K L M N O P Q R S T U V W X Y Z # 

All Of The Small Things Tabs (ver.13)

*Blink 182* Tabs
Rating:
0/5 (0 votes)
Hard to play? Try these video lessons and learn fast.
                blink 182, all the small things.

-----------------------------------------
(Standard tuning) EADGBE
this is EXACTLY how they played it on vma 2000.

INTRO (DIST.)
E|-------|
B|-------|
G|-------|
D|--5-3--|
A|--5-3--|
E|--3-1--|

RIFF 1 (DIST.)  PLAY 2 TIMES
E|---------------------------------------------|
B|---------------------------------------------|
G|--55555555--55555555-------------------------|
D|--55555555--33333333-55555555---------3-3-3--|
A|--33333333-----------xxxxxxxx-0-0-0-0-3-3-3--|
E|---------------------33333333---------1-1-1--|
                              Pm………………….…
VERSE 1 (PALM MUTE) PLAY 4 TIMES
E|---------------------------------------------|
B|---------------------------------------------|
G|---------------------------------------------|
D|--55555555-----------------------------------|
A|--33333333-55555555--33333333--55555555------|
E|-----------33333333--11111111--33333333------|

RIFF 2 LET RING
E|---------------|
B|---------------|
G|--5------------|
D|--5------------|
A|--3------------|
E|-------3----1--|

CHORUS (DIST.) PLAY 2 TIMES
E|------------------------------------------|
B|------------------------------------------|
G|--5555555555555555------------------------|
D|--5555555555555555-55555555-33333333------|
A|--3333333333333333-xxxxxxxx-33333333------|
E|-------------------33333333-11111111------|

RIFF 3 (DIST.) PLAY 2 TIMES
E|-------------------------------------------------|
B|-------------------------------------------------|
G|-55555555--101010--999--77777777-----------------|
D|-55555555--101010—-999--xxxxxxxx-7-7-7-7--3-3-3--|
A|-33333333---8-8-8--777--55555555-7-7-7-7--3-3-3--|
E|---------------------------------5-5-5-5--1-1-1--|
                                 Pm……………………
VERSE 2 (PALM MUTE) PLAY 2 TIMES
E|-------------------------------------------|
B|-------------------------------------------|
G|-------------------------------------------|
D|--55555555---------------------------------|
A|--33333333-55555555--33333333--55555555----|
E|-----------33333333--11111111--33333333----|

RIFF 4 LET RING
E|---------------|
B|---------------|
G|--5------------|
D|--5------------|
A|--3------------|
E|-------3----1--|

CHORUS (DIST.) PLAY 2 TIMES                   RIFF 5 LET RING
E|-----------------------------------------|  |-----|
B|-----------------------------------------|  |-----|
G|--5555555555555555-----------------------|  |--5--|
D|--5555555555555555--55555555--33333333---|  |--x--|
A|--3333333333333333--55555555--33333333---|  |--3--|
E|--------------------33333333--11111111---|  |-----|

 INTERLUDE (DIST.) PLAY I TIME LET RING
E|---------|
B|---------|
G|--5------|
D|--x------|
A|--3---5--|
E|---------|

(PALM MUTE) PLAY 4 TIMES          ENDING INTERLUDE
E|-----------------------------| |--------------------------------------|
B|-----------------------------| |--------------------------------------|
G|--5—-5--5--5--4--4--7--7-----| |--5555555555555555--------------------|
D|----5--5--5--5--5--5--5--5---| |--5555555555555555-33333333-55555555--|
A|-----------------------------| |--3333333333333333-33333333-55555555--|
E|-----------------------------| |-------------------11111111-33333333--|
                                  Pm…………………………………………………………………………………
CHORUS (DIST.) PLAY 3 TIMES
E|---------------------------------------------|
B|---------------------------------------------|
G|--5555555555555555---------------------------|
D|--5555555555555555--55555555--333333333------|
A|--3333333333333333--55555555--333333333------|
E|--------------------33333333--111111111------|

OUTRO (DIST.) PLAY 1 TIME
E|-------------------------------------------------------|
B|-------------------------------------------------------|
G|--5555555555555555------------------------------5------|
D|--5555555555555555--55555555—-555555555555555---5------|
A|--3333333333333333--55555555—-555555555555555---3------|
E|--------------------33333333—-333333333333333----------|
                              Pm………………………………………….

That's It.
            

comments powered by Disqus
↑ Back to top | *Blink 182* Tabs for All Of The Small Things. Lyrics for acoustic guitar and electric guitar. Tablatures and chords are parodies/interpretations of the original songs. You may use it for private study, scholarship, research or language learning purposes only