» » »

*Blink 182*, Alien Exist Tabs (ver.6)

Artists:  A B C D E F G H I J K L M N O P Q R S T U V W X Y Z # 

Alien Exist Tabs (ver.6)

*Blink 182* Tabs
 Rating:
4/5 (4 votes)
Alien Exist lessons Tabs too difficult? Try these video lessons and learn fast
                Blink 182, Aliens Exist.
  
Blink 182
Enema of the state/Mark, Tom, and Travis Show (The Enema Strikes Back)

This is my first tab, so if it sux go easy on me. I have only been playing guitar for like less than a year,
so it probably is inaccurate. It is a revised version of another tab. I'll probably do another Blink song, 
probably Untitled, since it is not there yet.

Intro:
e|--------------------------------------
B|--------------------------------------
G|--444444444444-----4------------------
D|--444444444444-----4------------------
A|--222222222222-----2------------------
E|--------------------------------------
PM...............     Let Ring

e|----------------------------------------------------------------
B|----------------------------------------------------------------
G|-------------------444444444------------------------------------
D|-------------------444444444-22222222-6666666666-22222222-------
A|-------------------222222222-22222222-6666666666-22222222-------
E|-xxxxxxxxxxxxxxx-------------00000000-4444444444-00000000-------
   Pickslide

Verse 1:
e|-------------------------------------------
B|-------------------------------------------
G|--444444444--------------------------------
D|--444444444-22222222-6666666666-22222222---
A|--222222222-22222222-6666666666-22222222---
E|------------00000000-4444444444-00000000---
PM........................................

e|---------------------|---------------------------------------
B|---------------------|---------------------------------------
G|--44444444444-6666666|-44444444444---------------------------
D|--44444444444-4444444|-44444444444-22222222-6666666-22222222-
A|--22222222222-4444444|-22222222222-22222222-6666666-22222222-
E|----------Play-twice-|-------------00000000-4444444-00000000-
PM............................................................

Chorus:
e|--------------------------------------
B|--------------------------------------
G|--444444444444------------------------
D|--444444444444--44444444444-----------
A|--222222222222--44444444444-----------
E|----------------22222222222-----------

e|---------------------------
B|---------------------------
G|---------------------------
D|-1-1---1-1---2-2---2-2-----
A|-----2-----2-----2-----2---
E|---------------------------
PM...........................
"And I know it must be late..."

e|----------------------
B|----------------------
G|----------4-----------
D|--4---2---4-----------
A|--4---2---2-----------
E|--2---0---------------
"I'm not like you guys..."

e|-------------------------------------------
B|-------------------------------------------
G|--444444444--------------------------------
D|--444444444-22222222-6666666666-22222222---
A|--222222222-22222222-6666666666-22222222---
E|------------00000000-4444444444-00000000--- 

Verse 2:
e|-------------------------------------------
B|-------------------------------------------
G|--444444444--------------------------------
D|--444444444-22222222-6666666666-22222222---
A|--222222222-22222222-6666666666-22222222---
E|------------00000000-4444444444-00000000---
PM........................................

e|-------------------------------------------
B|-------------------------------------------
G|--444444444-------------------------------- 
D|--444444444-22222222-6666666666-22222222---
A|--222222222-22222222-6666666666-22222222---
E|------------00000000-4444444444-00000000---
PM........................................

e|---------------------|---------------------------------------
B|---------------------|---------------------------------------
G|--44444444444-6666666|-44444444444---------------------------
D|--44444444444-4444444|-44444444444-22222222-6666666-22222222-
A|--22222222222-4444444|-22222222222-22222222-6666666-22222222-
E|----------Play-twice-|-------------00000000-4444444-00000000-
PM............................................................

Chorus:
e|--------------------------------------
B|--------------------------------------
G|--444444444444------------------------
D|--444444444444--44444444444-----------
A|--222222222222--44444444444-----------
E|----------------22222222222-----------

e|---------------------------
B|---------------------------
G|---------------------------
D|-1-1---1-1---2-2---2-2-----
A|-----2-----2-----2-----2---
E|---------------------------
PM...........................
"And I know it must be late..."

e|----------------------
B|----------------------
G|----------4-----------
D|--4---2---4-----------
A|--4---2---2-----------
E|--2---0---------------
"I'm not like you guys..."

Bridge:
e|----------------------------------------------------------
B|----------------------------------------------------------
G|--444444444444-88888888888-666666666-999999999-6666666666-
D|--444444444444-88888888888-666666666-999999999-6666666666-
A|--222222222222-66666666666-444444444-777777777-4444444444-
E|----------------------------------------------------------

Outro:
e|----------------------------------------
B|----------------------------------------
G|-66666666666----------------------------
D|-66666666666-444444444-22222222222------
A|-44444444444-444444444-22222222222------
E|-------------222222222-00000000000------

e|----------------------------------------------------------
B|----------------------------------------------------------
G|-44444444-6666666666--------------------------------------
D|-44444444-6666666666-66666666666-44444444444--------------
A|-22222222-4444444444-44444444444-44444444444--------------
E|---------------------44444444444-22222222222--------------

e|------------------------------------------
B|------------------------------------------
G|------------4444444444---6666666666-------
D|-22222222---4444444444---6666666666-------
A|-22222222---2222222222---4444444444-------
E|-00000000---------------------------------

Chorus:
e|--------------------------------------
B|--------------------------------------
G|--444444444444------------------------
D|--444444444444--44444444444-----------
A|--222222222222--44444444444-----------
E|----------------22222222222-----------

e|---------------------------
B|---------------------------
G|---------------------------
D|-1-1---1-1---2-2---2-2-----
A|-----2-----2-----2-----2---
E|---------------------------
PM...........................
"And I know it must be late..."


e|----------------------
B|----------------------
G|----------4-----------
D|--4---2---4-----------
A|--4---2---2-----------
E|--2---0---------------
"I'm not like you guys, twelve majestic lives" 
            
Submit corrections

comments powered by Disqus
↑ Back to top | *Blink 182* Tabs for Alien Exist. Lyrics for acoustic guitar and electric guitar. Tablatures and chords are parodies/interpretations of the original songs. You may use it for private study, scholarship, research or language learning purposes only