» » »

*Blink 182*, After Midnight Tabs (ver.5)

Artists:  A B C D E F G H I J K L M N O P Q R S T U V W X Y Z # 

After Midnight Tabs (ver.5)

*Blink 182* Tabs
 Rating:
4/5 (4 votes)
After Midnight lessons Tabs too difficult? Try these video lessons and learn fast
                "The Correct way to play the song, Since so many people get it wrong. -,-


INTRO a x1
e|-----------------|-----------------|
B|-----------------|-----------------|
G|--2-2----2-2-----|--2-2----2-2-----|
D|--2-2----2-2-----|--2-2----2-2-----|
A|--0-0----0-0-----|--0-0----0-0-----|
E|-----------------|-----------------|

INTRO b x2
e|-----------------|-----------------|-----------------|-----------------|
B|-----------------|-----------------|-----------------|-----------------|
G|-9-9-9-9-9-9-9-9-|---6-6-7---7-7-7-|-9-9-9-9-9-9-9-9-|----7---7---7-7--|
D|-7-7-7-7-7-7-7-7-|---7-7-7---7-7-7-|-7-7-7-7-7-7-7-7-|----7---7---7-7--|
A|-0-0-0-0-0-0-0-0-|---0-0-0---0-0-0-|-0-0-0-0-0-0-0-0-|----0---0---0-0--|
E|-----------------|-----------------|-----------------|-----------------|

VERSE (same as intro b) x4
"I can't get my feet up off the edge..."
e|-----------------|-----------------|-----------------|-----------------|
B|-----------------|-----------------|-----------------|-----------------|
G|-9-9-9-9-9-9-9-9-|---6-6-7---7-7-7-|-9-9-9-9-9-9-9-9-|----7---7---7-7--|
D|-7-7-7-7-7-7-7-7-|---7-7-7---7-7-7-|-7-7-7-7-7-7-7-7-|----7---7---7-7--|
A|-0-0-0-0-0-0-0-0-|---0-0-0---0-0-0-|-0-0-0-0-0-0-0-0-|----0---0---0-0--|
E|-----------------|-----------------|-----------------|-----------------|

Pre-Chorus x4
"From your lips, the word's a robbery, do you grin inside? you're killing me..."
e|-----------------|-----------------|-----------------|-----------------|
B|-10------10------|-9-------9-------|--9--------------|-----------------|
G|----9-9-----9-9--|---9-9------9-9--|------9----------|-----------------|
D|-----------------|-----------------|-----------------|-----------------|
A|-----------------|-----------------|-----------------|-----------------|
E|-----------------|-----------------|-----------------|-----------------|

Chorus x4
"We'll stagger home after midnight, sleep arm-in-arm in the stairwell"
e|-----------------------------------|
B|-----------------------------------|
G|-----------------------------------|
D|---7-7-7-9--7--7-7-7-7/9/11--------|
A|-----------------------------------|
E|---5-5-5-7--5--5-5-5-5/7/9---------|

INTRO a x1
e|-----------------|-----------------|
B|-----------------|-----------------|
G|--2-2----2-2-----|--2-2----2-2-----|
D|--2-2----2-2-----|--2-2----2-2-----|
A|--0-0----0-0-----|--0-0----0-0-----|
E|-----------------|-----------------|

VERSE x4
"I can't get your voice out of my head, all I can hear are many echoes of"
e|-----------------|-----------------|-----------------|-----------------|
B|-----------------|-----------------|-----------------|-----------------|
G|-9-9-9-9-9-9-9-9-|---6-6-7---7-7-7-|-9-9-9-9-9-9-9-9-|----7---7---7-7--|
D|-7-7-7-7-7-7-7-7-|---7-7-7---7-7-7-|-7-7-7-7-7-7-7-7-|----7---7---7-7--|
A|-0-0-0-0-0-0-0-0-|---0-0-0---0-0-0-|-0-0-0-0-0-0-0-0-|----0---0---0-0--|
E|-----------------|-----------------|-----------------|-----------------|

Pre-Chorus x4
"From your lips, the word's a robbery, do you grin inside? you're killing me..."
e|-----------------|-----------------|-----------------|-----------------|
B|-10------10------|-9-------9-------|--9--------------|-----------------|
G|----9-9-----9-9--|---9-9------9-9--|------9----------|-----------------|
D|-----------------|-----------------|-----------------|-----------------|
A|-----------------|-----------------|-----------------|-----------------|
E|-----------------|-----------------|-----------------|-----------------|

Chorus x4
"We'll stagger home after midnight, sleep arm-in-arm in the stairwell"
e|-----------------------------------|
B|-----------------------------------|
G|-----------------------------------|
D|---7-7-7-9--7--7-7-7-7/9/11--------|
A|-----------------------------------|
E|---5-5-5-7--5--5-5-5-5/7/9---------|

INTRO a x1
e|-----------------|-----------------|
B|-----------------|-----------------|
G|--2-2----2-2-----|--2-2----2-2-----|
D|--2-2----2-2-----|--2-2----2-2-----|
A|--0-0----0-0-----|--0-0----0-0-----|
E|-----------------|-----------------|

Bridge a x1
e|----------------------------------|---------------------------|
B|----------------------------------|---------------------------|
G|----------------------------------|---------------------------|
D|--7--9-9-11-11-11-97--------------|--7--9-9-11-11-11-9-117----|
A|----------------------------------|---------------------------|
E|----------------------------------|---------------------------|

Bridge b x1
e|----------------------------------|---------------------------------|
B|----------------------------------|---------------------------------|
G|-6-------6------6---------6h7-----|-7-------7------7----------------|
D|---7-7-7---7-7----7-7-7-7---------|---7-7-7---7-7----7-7-7-7-7-7-7--|
A|----------------------------------|---------------------------------|
E|----------------------------------|---------------------------------|

Chorus x8
"We'll stagger home after midnight, sleep arm-in-arm in the stairwell"
e|-----------------------------------|
B|-----------------------------------|
G|-----------------------------------|
D|---7-7-7-9--7--7-7-7-7/9/11--------|
A|-----------------------------------|
E|---5-5-5-7--5--5-5-5-5/7/9---------|

End on x1
e|-----------------|
B|-----------------|
G|--2--------------|
D|--2--------------|
A|--0--------------|
E|-----------------|

Rate -.o
"            
Submit corrections

comments powered by Disqus
↑ Back to top | *Blink 182* Tabs for After Midnight. Lyrics for acoustic guitar and electric guitar. Tablatures and chords are parodies/interpretations of the original songs. You may use it for private study, scholarship, research or language learning purposes only