» » »

*Blink 182*, After Midnight Tabs (ver.4)

Artists:  A B C D E F G H I J K L M N O P Q R S T U V W X Y Z # 

After Midnight Tabs (ver.4)

*Blink 182* Tabs
Rating:
0/5 (0 votes)
After Midnight lessons Tabs too difficult? Try these video lessons and learn fast
                "Blink-182 After Midnight Tab!

INTRO GUITAR- This carries on throughout the verse
E||-------------------------------------------------------------|
B||-------------------------------------------------------------|
G||----2--2--2----2--2--2----2--2--2----2--2--2-----------------|
D||----2--2--2----2--2--2----2--2--2----2--2--2-----------------|
A||-------------------------------------------------------------|
E||-------------------------------------------------------------|

INTRO GUITAR 2/ VERSE-
Play this throughout the verse. I sometimes use an open strings on the 7th fret the 
second time around.
E||-------------------------------------------------------------|
B||-------------------------------------------------------------|
G||----9--9--9---9--9--9---6--6---7--7---6----------------------|
D||----7--7--7---7--7--7---7--7---7--7---7----------------------|
A||-------------------------------------------------------------|
E||-------------------------------------------------------------|

Pre Chorus 1- You pause after playing this bit
E||-------------------------------------------------------------|
B||--10-10-10-10-10-10-10-10------------------------------------|
G||---9---9---9---9---9---9---9--9------------------------------|
D||---7---7---7---7---7---7---7--7------------------------------|
A||-------------------------------------------------------------|
E||-------------------------------------------------------------|


Pre Chorus 2- Palm Mute
E||-------------------------------------------------------------|
B||-------------------------------------------------------------|
G||----------------------------5--5--5--5--5--5--5--------------|
D||--4--4--4--4--4--4-----5--5--5--5--5--5--5-------------------|
A||--4--4--4--4--4--4-----7--7--7--7--7--7--7-------------------|
E||--2--2--2--2--2--2-------------------------------------------|


Chorus
E||---------------------------------------------------------------------------------------|
B||---------------------------------------------------------------------------------------|
G||--2-2-2-2-2-2-2-2-2-2------7--7--7--7--7--7--7-----------------------------------------|
D||--2-2-2-2-2-2-2-2-2-2------7--7--7--7--7--7--7------5--5--5--5--5--5--5----------------|
A||-----------------------------------5--5--5--5--5--5--5------5--5--5--5--5--5--5--------|
E||------------------------------------------------------------------7--7--7--7--7--7--7--|

After the chorus just repeat the tab over again until you reach the bridge which i dont
know the tabs completely yet but you should be able to find a way. Enjoy the song and i
hope this helps.....p.s this is my first tab i've every wrote so they may be a few 
mistakes and of course i dont know the song 100% but this will do for now until other tabs 
get released.
"            
Submit corrections

comments powered by Disqus
↑ Back to top | *Blink 182* Tabs for After Midnight. Lyrics for acoustic guitar and electric guitar. Tablatures and chords are parodies/interpretations of the original songs. You may use it for private study, scholarship, research or language learning purposes only