>
 >
Adam S Song With Complete Interlude

Adam S Song With Complete Interlude Guitar Tabs

*Blink 182* - Adam S Song With Complete Interlude chords, tabs, tablatures, lyrics

Guitar lessons | Add/correct | Request | Top 50 tabs Artists:  A B C D E F G H I J K L M N O P Q R S T U V W X Y Z 0-9

Adam S Song With Complete Interlude Guitar Tabs – *Blink 182*

CD, Sheet music, Poster

Do you like Adam S Song With Complete Interlude? Share with your friends now
Tabs
Adam's Song by Blink-182

Riff A:
Gtr. 1 w/clean tone
D-----------------------------------------------------------------------
A-----------------------------------------------------------------------
F-----------------------------------------------------------------------
C----4--0-----4--0-----4--0-----4--0-----4--0-----4--0-----4--0-----4--0
G-2--------2--------0--------0------------------------------------------
D-------------------------------------3--------3--------0--------3------
2x

Verse 1:
Gtr. 1 & Gtr. 2 w/clean tone
P.M._____________________________________________________________ 
D----------------------------------------------------------------
A----------------------------------------------------------------
F----------------------------------------------------------------
C-4-4-4-4-4-4-4-4------------------------------------------------
G-5-5-5-5-5-5-5-5-5-5-5-5-5-5-5-5-9-9-9-9-9-9-9-9-5-5-5-5-5-5-5-5
D-----------------3-3-3-3-3-3-3-3-7-7-7-7-7-7-7-7-3-3-3-3-3-3-3-3
4x

Interlude:
Gtr. 1 w/clean tone
D---------------------------------------------------------------------------
A---------------------------------------------------------------------------
F-------0--------0----------0--------0--------------------------------------
C----7--------7----------9--------9----------4--0-----4--0-----4--0-----4--0
G-5--------5----------7--------7----------2--------2------------------------
D-----------------------------------------------------------3--------3------
2x

Chorus 1:
Gtr.1 & Gtr.2 w/dist.
D--------------------------------------------------------------
A--------------------------------------------------------------
F-7-7-7-7-7-7-7-7-9-9-9-9-9-9-9/4-4-4-4-4-4-4-4----------------
C-x-x-x-x-x-x-x-x-x-x-x-x-x-x-x/x-x-x-x-x-x-x-x-5-5-5-5-5-5-5-5
G-5-5-5-5-5-5-5-5-7-7-7-7-7-7-7/2-2-2-2-2-2-2-2-x-x-x-x-x-x-x-x
D-----------------------------------------------3-3-3-3-3-3-3-3

Gtr. 1
D--------------------------------------------------------------
A--------------------------------------------------------------
F-7-7-7-7-7-7-7-7-9-9-9-9-9-9-9/4-4-4-4-4-4-4-4----------------
C-x-x-x-x-x-x-x-x-x-x-x-x-x-x-x/x-x-x-x-x-x-x-x-5-5-5-5-5-5-5-5
G-5-5-5-5-5-5-5-5-7-7-7-7-7-7-7/2-2-2-2-2-2-2-2-x-x-x-x-x-x-x-x
D-----------------------------------------------3-3-3-3-3-3-3-3
Gtr. 2
D------------------------------------------------------------------------------------------------
A------------------------------------------------------------------------------------------------
F-11-11-11-11-11-11-11-11-12-12-12-12-12-12-12-12-11-11-11-11-11-11-11-11-12-12-12-12-12-12-12-12
C--x--x--x--x--x--x--x--x--x--x--x--x--x--x--x--x--x--x--x--x--x--x--x--x--x--x--x--x--x--x--x--x
G--9--9--9--9--9--9--9--9-10-10-10-10-10-10-10-10--9--9--9--9--9--9--9--9-10-10-10-10-10-10-10-10
D------------------------------------------------------------------------------------------------

(Im only putting 3 guitar parts this next part)
Gtr.1 
D--------------------------------------------------------------------------------
A--------------------------------------------------------------------------------
F-7-7-7-7-7-7-7-7-9-9-9-9-9-9-9-9-10-10-10-10-10-10-10-10-12-12-12-12-12-12-12-12
C-x-x-x-x-x-x-x-x-x-x-x-x-x-x-x-x--x--x--x--x--x--x--x--x--x--x--x--x--x--x--x--x
G-5-5-5-5-5-5-5-5-7-7-7-7-7-7-7-7--9--9--9--9-9--9-9--9-10-10-10-10-10-10-10-10
D--------------------------------------------------------------------------------
Gtr. 2
D-----------------------------------------------------------------------------------------
A-----------------------------------------------------------------------------------------
F-11-11-11-11-11-11-11-11-12-12-12-12-12-12-12-12-11-11-11-11-11-11-11-11--7-7-7-7-7-7-7-7
C--x--x--x--x--x--x--x--x--x--x--x--x--x--x--x--x--x--x--x--x--x--x--x--x--x-x-x-x-x-x-x-x
G--9--9--9--9--9--9--9--9-10-10-10-10-10-10-10-10--9--9--9--9--9--9--9--9--5-5-5-5-5-5-5-5
D-----------------------------------------------------------------------------------------
Gtr. 3
D----------------------------------------------------------------
A----------------------------------------------------------------
F-7-7-7-7-7-7-7-7-9-9-9-9-9-9-9-9-4-4-4-4-4-4-4-4----------------
C-7-7-7-7-7-7-7-7-9-9-9-9-9-9-9-9-4-4-4-4-4-4-4-4-5-5-5-5-5-5-5-5
G-5-5-5-5-5-5-5-5-7-7-7-7-7-7-7-7-2-2-2-2-2-2-2-2-5-5-5-5-5-5-5-5
D-------------------------------------------------3-3-3-3-3-3-3-3

Gtr.1 
D--------------------------------------------------------------------------------
A--------------------------------------------------------------------------------
F-7-7-7-7-7-7-7-7-9-9-9-9-9-9-9-9-10-10-10-10-10-10-10-10-12-12-12-12-12-12-12-12
C-x-x-x-x-x-x-x-x-x-x-x-x-x-x-x-x--x--x--x--x--x--x--x--x--x--x--x--x--x--x--x--x
G-5-5-5-5-5-5-5-5-7-7-7-7-7-7-7-7--9--9--9--9-9--9-9--9-10-10-10-10-10-10-10-10
D--------------------------------------------------------------------------------
Gtr. 2
D-----------------------------------------------------------------------------------------
A-----------------------------------------------------------------------------------------
F-11-11-11-11-11-11-11-11-12-12-12-12-12-12-12-12-11-11-11-11-11-11-11-11--7-7-7-7-7-7-7-7
C--x--x--x--x--x--x--x--x--x--x--x--x--x--x--x--x--x--x--x--x--x--x--x--x--x-x-x-x-x-x-x-x
G--9--9--9--9--9--9--9--9-10-10-10-10-10-10-10-10--9--9--9--9--9--9--9--9--5-5-5-5-5-5-5-5
D-----------------------------------------------------------------------------------------
Gtr. 3
D----------------------------------------------------------------
A----------------------------------------------------------------
F-7-7-7-7-7-7-7-7-9-9-9-9-9-9-9-9-4-4-4-4-4-4-4-4----------------
C-7-7-7-7-7-7-7-7-9-9-9-9-9-9-9-9-4-4-4-4-4-4-4-4-5-5-5-5-5-5-5-5
G-5-5-5-5-5-5-5-5-7-7-7-7-7-7-7-7-2-2-2-2-2-2-2-2-5-5-5-5-5-5-5-5
D-------------------------------------------------3-3-3-3-3-3-3-3

Interlude:
Riff A:
Gtr. 1 w/clean tone
D----------------------------------------------------------------------
A----------------------------------------------------------------------
F----------------------------------------------------------------------
C----4--0-----4--0-----4--0-----4--0-----4--0-----4--0-----4--0----4--0
G-2--------2--------0--------0-----------------------------------------
D-------------------------------------3--------3--------0--------3-----
2x

Verse 2:
Gtr. 1 & Gtr. 2 w/clean tone
P.M._____________________________________________________________
D----------------------------------------------------------------
A----------------------------------------------------------------
F----------------------------------------------------------------
C-4-4-4-4-4-4-4-4------------------------------------------------
G-5-5-5-5-5-5-5-5-5-5-5-5-5-5-5-5-9-9-9-9-9-9-9-9-5-5-5-5-5-5-5-5
D-----------------3-3-3-3-3-3-3-3-7-7-7-7-7-7-7-7-3-3-3-3-3-3-3-3
4x

Interlude:
Gtr. 1 w/clean tone
D-------------------------------------------------------------------------
A-------------------------------------------------------------------------
F-------0--------0----------0--------0------------------------------------
C----7--------7----------9--------9--------4--0-----4--0-----2--0-----2--0
G-5--------5----------7--------7--------2--------2------------------------
D---------------------------------------------------------3--------3------
2x

Chorus 2:
Gtr.1 & Gtr.2 w/dist.
D--------------------------------------------------------------
A--------------------------------------------------------------
F-7-7-7-7-7-7-7-7-9-9-9-9-9-9-9/4-4-4-4-4-4-4-4----------------
C-x-x-x-x-x-x-x-x-x-x-x-x-x-x-x/x-x-x-x-x-x-x-x-5-5-5-5-5-5-5-5
G-5-5-5-5-5-5-5-5-7-7-7-7-7-7-7/2-2-2-2-2-2-2-2-x-x-x-x-x-x-x-x
D-----------------------------------------------3-3-3-3-3-3-3-3

Gtr. 1
D--------------------------------------------------------------
A--------------------------------------------------------------
F-7-7-7-7-7-7-7-7-9-9-9-9-9-9-9/4-4-4-4-4-4-4-4----------------
C-x-x-x-x-x-x-x-x-x-x-x-x-x-x-x/x-x-x-x-x-x-x-x-5-5-5-5-5-5-5-5
G-5-5-5-5-5-5-5-5-7-7-7-7-7-7-7/2-2-2-2-2-2-2-2-x-x-x-x-x-x-x-x
D-----------------------------------------------3-3-3-3-3-3-3-3
Gtr. 2
D------------------------------------------------------------------------------------------------
A------------------------------------------------------------------------------------------------
F-11-11-11-11-11-11-11-11-12-12-12-12-12-12-12-12-11-11-11-11-11-11-11-11-12-12-12-12-12-12-12-12
C--x--x--x--x--x--x--x--x--x--x--x--x--x--x--x--x--x--x--x--x--x--x--x--x--x--x--x--x--x--x--x--x
G--9--9--9--9--9--9--9--9-10-10-10-10-10-10-10-10--9--9--9--9--9--9--9--9-10-10-10-10-10-10-10-10
D------------------------------------------------------------------------------------------------

Gtr.1 
D--------------------------------------------------------------------------------
A--------------------------------------------------------------------------------
F-7-7-7-7-7-7-7-7-9-9-9-9-9-9-9-9-10-10-10-10-10-10-10-10-12-12-12-12-12-12-12-12
C-x-x-x-x-x-x-x-x-x-x-x-x-x-x-x-x--x--x--x--x--x--x--x--x--x--x--x--x--x--x--x--x
G-5-5-5-5-5-5-5-5-7-7-7-7-7-7-7-7--9--9--9--9-9--9-9--9-10-10-10-10-10-10-10-10
D--------------------------------------------------------------------------------
Gtr. 2
D-----------------------------------------------------------------------------------------
A-----------------------------------------------------------------------------------------
F-11-11-11-11-11-11-11-11-12-12-12-12-12-12-12-12-11-11-11-11-11-11-11-11--7-7-7-7-7-7-7-7
C--x--x--x--x--x--x--x--x--x--x--x--x--x--x--x--x--x--x--x--x--x--x--x--x--x-x-x-x-x-x-x-x
G--9--9--9--9--9--9--9--9-10-10-10-10-10-10-10-10--9--9--9--9--9--9--9--9--5-5-5-5-5-5-5-5
D-----------------------------------------------------------------------------------------
Gtr. 3
D----------------------------------------------------------------
A----------------------------------------------------------------
F-7-7-7-7-7-7-7-7-9-9-9-9-9-9-9-9-4-4-4-4-4-4-4-4----------------
C-7-7-7-7-7-7-7-7-9-9-9-9-9-9-9-9-4-4-4-4-4-4-4-4-5-5-5-5-5-5-5-5
G-5-5-5-5-5-5-5-5-7-7-7-7-7-7-7-7-2-2-2-2-2-2-2-2-5-5-5-5-5-5-5-5
D-------------------------------------------------3-3-3-3-3-3-3-3

Gtr.1 
D--------------------------------------------------------------------------------
A--------------------------------------------------------------------------------
F-7-7-7-7-7-7-7-7-9-9-9-9-9-9-9-9-10-10-10-10-10-10-10-10-12-12-12-12-12-12-12-12
C-x-x-x-x-x-x-x-x-x-x-x-x-x-x-x-x--x--x--x--x--x--x--x--x--x--x--x--x--x--x--x--x
G-5-5-5-5-5-5-5-5-7-7-7-7-7-7-7-7--9--9--9--9-9--9-9--9-10-10-10-10-10-10-10-10
D--------------------------------------------------------------------------------
Gtr. 2
D-----------------------------------------------------------------------------------------
A-----------------------------------------------------------------------------------------
F-11-11-11-11-11-11-11-11-12-12-12-12-12-12-12-12-11-11-11-11-11-11-11-11--7-7-7-7-7-7-7-7
C--x--x--x--x--x--x--x--x--x--x--x--x--x--x--x--x--x--x--x--x--x--x--x--x--x-x-x-x-x-x-x-x
G--9--9--9--9--9--9--9--9-10-10-10-10-10-10-10-10--9--9--9--9--9--9--9--9--5-5-5-5-5-5-5-5
D-----------------------------------------------------------------------------------------
Gtr. 3
D----------------------------------------------------------------
A----------------------------------------------------------------
F-7-7-7-7-7-7-7-7-9-9-9-9-9-9-9-9-4-4-4-4-4-4-4-4----------------
C-7-7-7-7-7-7-7-7-9-9-9-9-9-9-9-9-4-4-4-4-4-4-4-4-5-5-5-5-5-5-5-5
G-5-5-5-5-5-5-5-5-7-7-7-7-7-7-7-7-2-2-2-2-2-2-2-2-5-5-5-5-5-5-5-5
D-------------------------------------------------3-3-3-3-3-3-3-3

Interlude:
Gtr. 1 w/clean tone:
D------------------------------------------------------------------------------------------------
A------------------------------------------------------------------------------------------------
F-------0--------0--------------0--------0--------------0--------0--------------0----------------
C----4--------4--------4-----4--------4--------4-----4--------4--------4-----4-----0-----0------0
G-5--------5--------5-----5--------5--------5-----5--------5--------5-----5-----------5------5---
D------------------------------------------------------------------------------------------------
Gtr. 4(acoustic):
D-------------------------------------------------------------------------2-------------------
A-------------------------3--------------------------------------3--------------------3-------
F-------------------------------------------------2------------------------------------------2
C-0-------------------------------------------------------------------------------------------
G---------------------------------------------------------------------------------------------
D---------------------------------------------------------------------------------------------

Gtr. 1 w/clean tone:
D-------------------------------------------------------------------------------------------------------------
A-------------------------------------------------------------------------------------------------------------
F-------0-----0-----------------0-------------------------------------------------------------0-----0---------
C----4-----------4-----4-----4--------4-----0-----------2-----2-----2p0-----4--------0-----4-----------4-----4
G-5--------5--------5-----5--------5-----5-----5--0--2-----0-----0-------0-----0--2-----5--------5--------5---
D------------------------------------------------------------------------------------------------------------- 
Gtr. 4(acoustic):
D-2-------------------------------------------------------------------2------------------
A-------------------------3-----------------------------------3----------------3--------3
F-------------------------------------------------2----------------------------------2---
C----------------------------------------------------------------------------------------
G----------------------------------------------------------------------------------------
D---------------------------------------------------------------------------------------- 

Gtr. 1 w/clean tone:
D-------------------------------------------------------------------------------------
A-------------------------------------------------------------------------------------
F-------0-------------------------------------------------------------0-----0---------
C----4--------4-----0-----------2-----2-----2p0-----4--------0-----4-----------4-----4
G-5--------5-----5-----5--0--2-----0-----0-------0-----0--2-----5--------5--------5---
D------------------------------------------------------------------------------------- 

Gtr. 1 w/clean tone:
D-----------------------------------------------------------------
A-----------------------------------------------------------------
F-------0-----------------------------------------------------0---
C----4--------4------0-----------2-----2-----2p0-----4-----4------
G-5--------5------5-----5--0--2-----0-----0-------5-----5--------5
D-----------------------------------------------------------------

D-----------------------------------------------------------------------------------------------
A-----------------------------------------------------------------------------------------------
F-------7--------7--------7--------7--------7-----------7--------7--------7--------7--------7---
C----0--------0--------0--------0--------0-----0-----0--------0--------0--------0--------0-----0
G-5--------5--------5--------5--------5-----------5--------5--------5--------5--------5---------
D-----------------------------------------------------------------------------------------------

D-----------------------------------------------
A-----------------------------------------------
F-------7--------7--------7--------7--------7---
C----0--------0--------0--------0--------0-----0
G-5--------5--------5--------5--------5---------
D-----------------------------------------------

Chorus 3:
Gtr.1 
D--------------------------------------------------------------------------------
A--------------------------------------------------------------------------------
F-7-7-7-7-7-7-7-7-9-9-9-9-9-9-9-9-10-10-10-10-10-10-10-10-12-12-12-12-12-12-12-12
C-x-x-x-x-x-x-x-x-x-x-x-x-x-x-x-x--x--x--x--x--x--x--x--x--x--x--x--x--x--x--x--x
G-5-5-5-5-5-5-5-5-7-7-7-7-7-7-7-7--9--9--9--9-9--9-9--9-10-10-10-10-10-10-10-10
D--------------------------------------------------------------------------------
Gtr. 2
D-----------------------------------------------------------------------------------------
A-----------------------------------------------------------------------------------------
F-11-11-11-11-11-11-11-11-12-12-12-12-12-12-12-12-11-11-11-11-11-11-11-11--7-7-7-7-7-7-7-7
C--x--x--x--x--x--x--x--x--x--x--x--x--x--x--x--x--x--x--x--x--x--x--x--x--x-x-x-x-x-x-x-x
G--9--9--9--9--9--9--9--9-10-10-10-10-10-10-10-10--9--9--9--9--9--9--9--9--5-5-5-5-5-5-5-5
D-----------------------------------------------------------------------------------------
Gtr. 3
D----------------------------------------------------------------
A----------------------------------------------------------------
F-7-7-7-7-7-7-7-7-9-9-9-9-9-9-9-9-4-4-4-4-4-4-4-4----------------
C-7-7-7-7-7-7-7-7-9-9-9-9-9-9-9-9-4-4-4-4-4-4-4-4-5-5-5-5-5-5-5-5
G-5-5-5-5-5-5-5-5-7-7-7-7-7-7-7-7-2-2-2-2-2-2-2-2-5-5-5-5-5-5-5-5
D-------------------------------------------------3-3-3-3-3-3-3-3

Gtr.1 
D--------------------------------------------------------------------------------
A--------------------------------------------------------------------------------
F-7-7-7-7-7-7-7-7-9-9-9-9-9-9-9-9-10-10-10-10-10-10-10-10-12-12-12-12-12-12-12-12
C-x-x-x-x-x-x-x-x-x-x-x-x-x-x-x-x--x--x--x--x--x--x--x--x--x--x--x--x--x--x--x--x
G-5-5-5-5-5-5-5-5-7-7-7-7-7-7-7-7--9--9--9--9-9--9-9--9-10-10-10-10-10-10-10-10
D--------------------------------------------------------------------------------
Gtr. 2
D-----------------------------------------------------------------------------------------
A-----------------------------------------------------------------------------------------
F-11-11-11-11-11-11-11-11-12-12-12-12-12-12-12-12-11-11-11-11-11-11-11-11--7-7-7-7-7-7-7-7
C--x--x--x--x--x--x--x--x--x--x--x--x--x--x--x--x--x--x--x--x--x--x--x--x--x-x-x-x-x-x-x-x
G--9--9--9--9--9--9--9--9-10-10-10-10-10-10-10-10--9--9--9--9--9--9--9--9--5-5-5-5-5-5-5-5
D-----------------------------------------------------------------------------------------
Gtr. 3
D----------------------------------------------------------------
A----------------------------------------------------------------
F-7-7-7-7-7-7-7-7-9-9-9-9-9-9-9-9-4-4-4-4-4-4-4-4----------------
C-7-7-7-7-7-7-7-7-9-9-9-9-9-9-9-9-4-4-4-4-4-4-4-4-5-5-5-5-5-5-5-5
G-5-5-5-5-5-5-5-5-7-7-7-7-7-7-7-7-2-2-2-2-2-2-2-2-5-5-5-5-5-5-5-5
D-------------------------------------------------3-3-3-3-3-3-3-3

Gtr.1 
D--------------------------------------------------------------------------------
A--------------------------------------------------------------------------------
F-7-7-7-7-7-7-7-7-9-9-9-9-9-9-9-9-10-10-10-10-10-10-10-10-12-12-12-12-12-12-12-12
C-x-x-x-x-x-x-x-x-x-x-x-x-x-x-x-x--x--x--x--x--x--x--x--x--x--x--x--x--x--x--x--x
G-5-5-5-5-5-5-5-5-7-7-7-7-7-7-7-7--9--9--9--9-9--9-9--9-10-10-10-10-10-10-10-10
D--------------------------------------------------------------------------------
Gtr. 2
D-----------------------------------------------------------------------------------------
A-----------------------------------------------------------------------------------------
F-11-11-11-11-11-11-11-11-12-12-12-12-12-12-12-12-11-11-11-11-11-11-11-11--7-7-7-7-7-7-7-7
C--x--x--x--x--x--x--x--x--x--x--x--x--x--x--x--x--x--x--x--x--x--x--x--x--x-x-x-x-x-x-x-x
G--9--9--9--9--9--9--9--9-10-10-10-10-10-10-10-10--9--9--9--9--9--9--9--9--5-5-5-5-5-5-5-5
D-----------------------------------------------------------------------------------------
Gtr. 3
D----------------------------------------------------------------
A----------------------------------------------------------------
F-7-7-7-7-7-7-7-7-9-9-9-9-9-9-9-9-4-4-4-4-4-4-4-4----------------
C-7-7-7-7-7-7-7-7-9-9-9-9-9-9-9-9-4-4-4-4-4-4-4-4-5-5-5-5-5-5-5-5
G-5-5-5-5-5-5-5-5-7-7-7-7-7-7-7-7-2-2-2-2-2-2-2-2-5-5-5-5-5-5-5-5
D-------------------------------------------------3-3-3-3-3-3-3-3

Gtr.1 
D--------------------------------------------------------------------------------
A--------------------------------------------------------------------------------
F-7-7-7-7-7-7-7-7-9-9-9-9-9-9-9-9-10-10-10-10-10-10-10-10-12-12-12-12-12-12-12-12
C-x-x-x-x-x-x-x-x-x-x-x-x-x-x-x-x--x--x--x--x--x--x--x--x--x--x--x--x--x--x--x--x
G-5-5-5-5-5-5-5-5-7-7-7-7-7-7-7-7--9--9--9--9-9--9-9--9-10-10-10-10-10-10-10-10
D--------------------------------------------------------------------------------
Gtr. 2
D-----------------------------------------------------------------------------------------
A-----------------------------------------------------------------------------------------
F-11-11-11-11-11-11-11-11-12-12-12-12-12-12-12-12-11-11-11-11-11-11-11-11--7-7-7-7-7-7-7-7
C--x--x--x--x--x--x--x--x--x--x--x--x--x--x--x--x--x--x--x--x--x--x--x--x--x-x-x-x-x-x-x-x
G--9--9--9--9--9--9--9--9-10-10-10-10-10-10-10-10--9--9--9--9--9--9--9--9--5-5-5-5-5-5-5-5
D-----------------------------------------------------------------------------------------
Gtr. 3
D----------------------------------------------------------------
A----------------------------------------------------------------
F-7-7-7-7-7-7-7-7-9-9-9-9-9-9-9-9-4-4-4-4-4-4-4-4----------------
C-7-7-7-7-7-7-7-7-9-9-9-9-9-9-9-9-4-4-4-4-4-4-4-4-5-5-5-5-5-5-5-5
G-5-5-5-5-5-5-5-5-7-7-7-7-7-7-7-7-2-2-2-2-2-2-2-2-5-5-5-5-5-5-5-5
D-------------------------------------------------3-3-3-3-3-3-3-3

D--
A--
F-7
C-7
G-5
D--





Comments


Popular *Blink 182* tabs & chords
Apple Shampoo 3 Bass Tabs
Dick Lips Bass Tabs
Reckless Abandon Bass Tabs
Dumpweed Chords
Anthem Drum Tabs
Dancing With Myself 4 Tabs
Dogs Eating Dogs 3 Tabs
Dogs Eating Dogs 5 Tabs
Feeling This 1 Tabs
Track 38 Tabs


Song lyrics



↑ Back to top | Tablatures and chords are parodies/interpretations of the original songs. You may use it for private study, scholarship, research or language learning purposes only
© 2014 AZChords.com Contact us | Privacy policy | DMCA | Add/correct tabs | Request tabs | Top 50 tabs