» » »

Adam Song Tabs (ver.24)

Artists:  A B C D E F G H I J K L M N O P Q R S T U V W X Y Z # 

Adam Song Tabs (ver.24)

*Blink 182*
Rating:
0/5 (0 votes)

Hard to play? Try these video lessons and learn fast.
                (Live)
Ok, so this is the guitar tab for the live version of Adam's Song by Blink 182.  The
are pretty much the same except Blink 182 plays it in standard when playing live not a
step down like in the recorded version, but in standard, but the exact same notes are 
 So you can also use this tab as a guide for playing like the recorded version, since
notes are the same, so you play the exact same thing you see here but in a whole step down.

Blink 182- Adam's Song
Tuning: Standard        eADGBE
Difficulty: Novice

REMEMBER THIS TAB IS FOR THE LIVE VERSION THEY PLAY WHEN THEY PLAY LIVE! HENCE THE LIVE
OK?

Intro

E|-----------------------------------------------------------|
B|-----------------------------------------------------------|
G|-----------------------------------------------------------|  Repeat
D|---4-0---4-0---4-0---4-0---4-0----4-0---4-0----4-0---------|  2x
A|-2-----2-----0-----0---------------------------------------|
e|-------------------------3------3-----0------3-------------|

Verse

E|----------------------------|   Repeat 4x  (I think 4, but maybe more)
B|----------------------------|
G|----------------------------|
D|-77777777----------55555555-|
A|-55555555-44444444-33333333-|
e|----------22222222----------|

Pre Pre Chorus

E|-------------------------------------|  Repeat 2x
B|-------------------------------------|
G|---0--0--0--0------------------------|
D|--7--7--9--9---4-0---4-0---4-0---4-0-|
A|-5--5--7--7--2-----2-----------------|
e|-------------------------0-----3-----|

Pre Chorus

E|-------------------------------------|   Repeat 2x
B|-------------------------------------|
G|-77777777-99999999-------------------|
D|-xxxxxxxx-xxxxxxxx-99999999-55555555-|
A|-55555555-77777777-xxxxxxxx-xxxxxxxx-|
e|-------------------77777777-33333333-|

Chorus

E|-------------------------------------|   Repeat 2x
B|-------------------------------------|
G|-77777777-99999999-------------------|
D|-77777777-99999999-99999999-55555555-|
A|-55555555-77777777-99999999-55555555-|
e|-------------------77777777-33333333-|

REPEAT ALL OF THE ABOVE BECAUSE THE SONG JUST REPEATS A SECOND TIME!!!!

Interlude

E|-------|   Just keep repeating this series of 3 notes until interlude
B|-------|   ends.  At one point the rhythm changes a little bit but the
G|---7---|   same notes ar eplayed.
D|--7----|
A|-5-----|
e|-------|

Outro

Repeat Chorus until songs ends but end on first chord of the chorus.
            
Hard to play? Try these video lessons and learn fast. | Correct




comments powered by Disqus
↑ Back to top | Tablatures and chords are parodies/interpretations of the original songs. You may use it for private study, scholarship, research or language learning purposes only