>
 >
Action 2

Action 2 Bass Tabs

*Blink 182* - Action 2 chords, tabs, tablatures, lyrics

Guitar lessons | Add/correct | Request | Top 50 tabs Artists:  A B C D E F G H I J K L M N O P Q R S T U V W X Y Z 0-9

Action 2 Bass Tabs – *Blink 182*

CD, Sheet music, Poster

Do you like Action 2? Share with your friends now
Bass Tabs
Ok this is my first tab for mX tabs, 
My name’s alex well I think this 
is the right way to play action, 
all the tabs ive seen are basically 
all the same and are not 100 % correct 
im pretty sure this is. I was trying to 
play the other tabs but it dint sound right 
so I did this' ok i have two user accounts 
and i accidentl;y put this one on the wrong one. 
my other user name is blinkpunkrockkid95 and my email 
alrith enjoy!


Verse: starts at (00:11)

G:-------------------------------------------------------|
D:----9----9----9----9-—7--6-----6----6----6-------------|
A:-77---77---7----77----------44---44----4------9----7---|  4x
E:-------------------------------------------77---55-----|

Chours:(00:33)

G:--------------------------------------------------------------|
D:----9----9---9------4----4---4-----6----6---6-----------------|
A:-77---77---7-----22---22---2----44---44---4------7----7---7---| 2x
E:----------------------------------------------55---55---5-----|

Then rest for 4 measures 

Verse 2: starts at (00:55)

G:-------------------------------------------------------|
D:----9----9----9----9-—7--6-----6----6----6-------------|
A:-77---77---7----77----------44---44----4------9----7---|  3x
E:-------------------------------------------77---55-----|

Chours:(01:12)

G:--------------------------------------------------------------|
D:----9----9---9------4----4---4-----6----6---6-----------------|
A:-77---77---7-----22---22---2----44---44---4------7----7---7---| 2x
E:----------------------------------------------55---55---5-----|


Rest for 4 measures 

Bridge:(01:33)

G:------------------------------------------------|
D:------------------------------------------------|
A:------------------------------------------------| 
E:--0~~~LET-RING-FOR-4-measures-------------------|

Then…
 (01:44)
G:------------------------------------------------|
D:------------------------------------------------|
A:-77777777--22222222--44444444--00000000---------| 
E:------------------------------------------------|

G:------------------------------------------------|
D:------------------------------------------------|
A:-77777777--22222222--44444444—0-----------------| 
E:------------------------------------------------|
Outro: ( 01:56)
G:-------------------------------------------------------|
D:----9----9----9----9-—7--6-----6----6----6-------------|
A:-77---77---7----77----------44---44----4------9----7---|  9x
E:-------------------------------------------77---55-----|



During the nith time it starts to fade out





Comments


Popular *Blink 182* tabs & chords
Anthem Part Two 2 Bass Tabs
After Midnight 1 Tabs
Always 2 Tabs
Anthem Tabs
Dead Mans Curve 1 Tabs
Dont Tell Me That Its Over Tabs
Feeling This Live Tabs
Reebok Commercial 1 Tabs
Stockholme Syndrome Tabs
Toast And Bananas 1 Tabs


Song lyrics



↑ Back to top | Tablatures and chords are parodies/interpretations of the original songs. You may use it for private study, scholarship, research or language learning purposes only
© 2014 AZChords.com Contact us | Privacy policy | DMCA | Add/correct tabs | Request tabs | Top 50 tabs