» » »

21 Days Tabs (ver.2)

Artists:  A B C D E F G H I J K L M N O P Q R S T U V W X Y Z # 

21 Days Tabs (ver.2)

*Blink 182*
Rating:
0/5 (0 votes)

Hard to play? Try these video lessons and learn fast.
                
this is the ending of the number:

1:-----------------------------------------------------------|
2:-----------------------------------------------------------|
3:--7--9--11--12--11--9-----7--9--11--9--7-7-----------------|
4:-----------------------------------------------------------|  x2
5:-----------------------------------------------------------|
6:-----------------------------------------------------------|

Ending 2:
1:-----------------------------------------------------------|
2:-----------------------------------------------------------|
3:--7-7-7-7--9-9-9--11-11--12-12---11-11--9-9—---------------|
4:-----------------------------------------------------------|
5:--5-5-5-5--7-7-7---9--9--10-10---9--9---7-7—---------------|
6:-----------------------------------------------------------|

1:-----------------------------------------------------------|
2:-----------------------------------------------------------|
3:--7-7-7-7--9-9-9--11-11---9-9—---7—-7----------------------|
4:-----------------------------------------------------------|
5:--5-5-5-5--7-7-7---9--9---7-7--- 5--5 ---------------------|
6:-----------------------------------------------------------|
            
Hard to play? Try these video lessons and learn fast. | Correct




comments powered by Disqus
↑ Back to top | Tablatures and chords are parodies/interpretations of the original songs. You may use it for private study, scholarship, research or language learning purposes only