» » »

*Blink 182*, 0bvious Tabs (ver.1)

Artists:  A B C D E F G H I J K L M N O P Q R S T U V W X Y Z # 

0bvious Tabs (ver.1)

*Blink 182* Tabs
Rating:
0/5 (0 votes)
Hard to play? Try these video lessons and learn fast.
                Intro:
||---------------------------------------------||E
||---------------------------------------------||B
||---------------------------------------------||G
||---2--2-2--2-22-2----------------------------||D
||---4--4-4--0-00-0----------------------------||A
||---0--0-0--3-33-3----------------------------||D flat



Verse:
||-------------------------------||    ||------------||
||-------------------------------||    ||------------|| THis Version I prefer, TOm plays this 
||---9------11-----13------14----|| OR ||------------|| For and example Listen to The song 
||---x------x-------x-------x----||    ||---4---2----|| live on AOL
||---7------9------11------12----||    ||---2---0----||
||-------------------------------||    ||---0---3----||

Or To Play Live version 

Chorus:
||--------------------------------------------||
||--------------------------------------------||
||--------------------------------------------||
||---2222222222222222-------------------------||
||---2222222222222222-------------------------||
||---3333333333333333--777-555-888-00 22-3----||

Note THen Pause        Interlude:
||----------||         ||-----------------------------------||
||----------||         ||-----------------------------------||
||----------||         ||----000----------------------------||
||----------||  THEN   ||----999-----666-101010--9-9-1010---||
||--1hold---||         ||----777-777-444--8-8-8--7-7--8-8---||
||--0hold---||         ||--------888------------------------||

Outro:
||----------------------------------------------------------------------------||
||----------------------------------------------------------------------------||
||---9999999999999999------------------9999999999999999----------22222222-----||
||---9999999999999999-9999999999999999-9999999999999999-99999999-22222222-----||
||---7777777777777777-6666666666666666-7777777777777777-66666666-00000000-----||
||----------------------------------------------------------------------------||


Last note:
||-----------||
||-----------||
||-----------||
||---4-------||
||---2-------||
||---0-------||

ORDER:
intro: 6X
verse: 1x
Chorus: 2X
intro: 4X
verse: 1X
chorus: 4X
HOld Note
interlude: 6X
outro: 4X
last note: 1X (let it ring)
            

comments powered by Disqus
↑ Back to top | *Blink 182* Tabs for 0bvious. Lyrics for acoustic guitar and electric guitar. Tablatures and chords are parodies/interpretations of the original songs. You may use it for private study, scholarship, research or language learning purposes only