» » »

100% What Went Wrong Tabs (ver.2)

Artists:  A B C D E F G H I J K L M N O P Q R S T U V W X Y Z # 

100% What Went Wrong Tabs (ver.2)

Blink
Rating:
0/5 (0 votes)

Hard to play? Try these video lessons and learn fast.
                
Capo 2nd fret (tab is as if the capo is zero)

Intro
Guitar One
e-----------|-----------|
b-----------|-----------|
g-----------|-----------|
d---7-5-----|---7-5-----|
a-5---------|-5---------|
E-----------|-----------|

Intro Two X4
(With Guitar one intro X4)
e-----------|-----------|
b-----------|-----------|
g-----------|-----55555-|
d-555-55555-|-222-55555-|
a-555-55555-|-222-33333-|
E-333-33333-|-000-------|

Verse X2
e-----------|------------|-----------|------------|
b-----------|------------|-----------|------------|
g-----------|------------|-777-77777-|-555-5-5555-|
d-555-55555-|-222-2-2222-|-777-77777-|-555-5-5555-|
a-555-55555-|-222-2-2222-|-555-55555-|-333-3-3333-|
E-333-33333-|-000-0-0000-|-----------|------------|

Repeat
Intro two with intro one X2

Repeat Verse

Chrous X2 (figure strumming)
e----------|----------|----------|----------|
b----------|----------|----------|----------|
g----------|----------|----------|-55555555-|
d-55555555-|-44444444-|-22222222-|-55555555-|
a-55555555-|-55555555-|-22222222-|-33333333-|
E-33333333-|-22222222-|-00000000-|----------|

Repeat Intros

Repeat Verse

Repeat Chorus

Solo
e---------|---------|---------|---------|
b---------|-----0---|---------|-----0---|
g-----7---|---------|-----7---|---------|
d---5---7-|---5---5-|---5---5-|---5---5-|
a-7-------|-7-------|-7-------|-7-------|
E---------|---------|---------|---------|

e---------|---------|---------|---------|
b---------|---------|---------|---------|
g-----7---|-----4---|-----7---|-----4---|
d---5---5-|---5---5-|---5---5-|---5---5-|
a-3-------|-3-------|-3-------|-3-------|
E---------|---------|---------|---------|

e---------|---------|---------|---------|
b---------|---------|---------|---------|
g-----7---|-----4---|-----7---|-----4---|
d---5---5-|---5---5-|---5---5-|---5---5-|
a---------|---------|-0-------|-0-------|
E-3-------|-3-------|---------|---------|

e---------|---------|---------|--------------|
b---------|---------|---------|--------------|
g-----4---|-----4---|-----4---|-4444-4444444-|
d---5---5-|---5---5-|---5---5-|-5555-5555555-|
a-3-------|-3-------|-3-------|-3333-3333333-|
E---------|---------|---------|--------------|

During clarinet solo.
(tom plays this live. 
But the recorded version play it an extra time or two)
e----------|----------|----------|----------|----------|----------|
b----------|----------|----------|----------|----------|----------|
g----------|-55555555-|-44444444-|----------|-55555555-|-44444444-|
d-22222222-|-55555555-|-55555555-|-22222222-|-55555555-|-55555555-|
a-22222222-|-33333333-|-22222222-|-22222222-|-33333333-|-22222222-|
E-00000000-|----------|----------|-00000000-|----------|----------|

then...
e----------|----------|----------|----------|
b----------|----------|----------|----------|
g----------|-55555555-|-44444444-|-77777777-|
d-22222222-|-55555555-|-55555555-|-77777777-|
a-22222222-|-33333333-|-22222222-|-55555555-|
E-00000000-|----------|----------|----------|

Outro 
Play the intro two, then the other guitar comes in with intro one


By John Black

Please rate/comment
            
Hard to play? Try these video lessons and learn fast. | Correct




comments powered by Disqus
↑ Back to top | Tablatures and chords are parodies/interpretations of the original songs. You may use it for private study, scholarship, research or language learning purposes only