» » »

Blink, Voyeur Tabs (ver.1)

Artists:  A B C D E F G H I J K L M N O P Q R S T U V W X Y Z # 

Voyeur Tabs (ver.1)

Blink Tabs
 Rating:
4/5 (4 votes)
Voyeur lessons Tabs too difficult? Try these video lessons and learn fast
                Verse: palm mute where needed
e|-------------------------------------------------------------------|
B|-------------------------------------------------------------------|
G|-------------------------------------------------------------------|
D|-5-5-5-5-5-5-5-5-5-5-5-5-5-5-5-5-5-2-2-2-2-2-2-2-2-----------------|
A|-3-3-3-3-3-3-3-3-3-3-3-3-3-3-3-3-3-0-0-0-0-0-0-0-0-3-3-3-3-3-3-3-3-|
E|---------------------------------------------------1-1-1-1-1-1-1-1-|

Chorus:
e|-----------------------------------------------------------------------------
B|-----------------------------------------------------------------------------
G|-----------------------------------------------------------------------------
D|-----------------------------------------3-----------------------------------
A|-5-5-5-5-5-5-5-5-3-3-3-3-3-3-3-3-3-3-3-3---3-3-3-3---5-5-5-5-5-5-5-5-3-3-3-3-
E|-3-3-3-3-3-3-3-3-1-1-1-1-1-1-1-1-------------------3-3-3-3-3-3-3-3-3-1-1-1-1-

e|-------------------------------------------------------------------------
B|-------------------------------------------------------------------------
G|-------------------------------------------------------------------------
D|---------5-5-5-5-5-5-5-5-------------------------------------------------
A|-3-3-3-3-3-3-3-3-3-3-3-3-5-5-5-5-5-5-5-5-5-5-5-5-5-5-5-5-3-3-3-3-3-3-3-3-
E|-1-1-1-1-----------------3-3-3-3-3-3-3-3-3-3-3-3-3-3-3-3-1-1-1-1-1-1-1-1-

e|-------------------------------------------------------------------------
B|-------------------------------------------------------------------------
G|-------------------------------------------------------------------------
D|-5-5-5-5-5-5-5-5-------------------------------------------------5-5-5-5-
A|-3-3-3-3-3-3-3-3-5-5-5-5-5-5-5-5-5-5-5-5-5-5-5-5-3-3-3-3-3-3-3-3-3-3-3-3-
E|-----------------3-3-3-3-3-3-3-3-3-3-3-3-3-3-3-3-1-1-1-1-1-1-1-1---------

e|-------------------------------------------------|
B|-------------------------------------------------|
G|-------------------------------------------------|
D|-5-5-5-5---------3-------------------3-----------|
A|-3-3-3-3-3-3-3-3---3-3-3-3---3-3-3-3---3-3-3-3---|
E|---------------------------3-------------------3-|

Bridge:
e|----------|
B|----------|
G|-5--------|
D|-x--------|
A|-3--------|
E|----------|

Outro:
e-|--------------------------------------|
B-|--------------------------------------|
G-|--------------------------------------|
D-|---5------5-----5-----5-----5-----5---|
A-|-3-3--5-3-3-5-3-3-5-3-3-5-3-3-5-3-3---|
E-|-1----3-1---3-1---3-1---3-1---3-1-----|
            
Submit corrections

comments powered by Disqus
↑ Back to top | Blink Tabs for Voyeur. Lyrics for acoustic guitar and electric guitar. Tablatures and chords are parodies/interpretations of the original songs. You may use it for private study, scholarship, research or language learning purposes only