>
 >
Touchdown Boy 1

Touchdown Boy 1 Guitar Tabs

Blink - Touchdown Boy 1 chords, tabs, tablatures, lyrics

Guitar lessons | Add/correct | Request | Top 50 tabs Artists:  A B C D E F G H I J K L M N O P Q R S T U V W X Y Z 0-9

Touchdown Boy 1 Guitar Tabs – Blink

CD, Sheet music, Poster

Do you like Touchdown Boy 1? Share with your friends now
TabsTabs v2
comments or suggestions
Here's the intro, the # of strums isn't tabbed out...play along with the cd 
                                                                            
 
 
E-|-------------------------------------------------------------------------
B-|-------------------------------------------------------------------------
G-|-9-9-8---------9-8-----------9-------------------------------------------
D-|-9-9-8-9-7-6-2-9-8-9-7-6-2---9--6-7-9--11--6-7-9--9--6-7-9--7--6-7-9-----
A-|-7-7-6-9-7-6-2-7-6-9-7-6-2---7---------11---------9---------7------------
E-|-------7-5-4-0-----7-5-4-0-------------9----------7---------5------------
                                                                            
  
                                                                            
  
E-|-------------------------------------------------------------------------
B-|-------------------------------------------------------------------------
G-|-9-----------------------------9----9-----------------------------9------
D-|-9--9-7-6--9--9-7-6--7--6-7-6--9----9--9-7-6--9--9-7-6--7--6-7-6--9------
A-|-7---------9---------7---------7----7---------9---------7---------7------
E-|-----------7---------5------------------------7---------5----------------
                                                                            
  
                                                                            
  
E-|-------------------------------------------------------------------------
B-|-------------------------------------------------------------------------
G-|-------------------------------------------------------------------------
D-|---9-----9-----7---7-----7-----9-----9-----7---7-----7-------------------
A-|-7---7-7---7-7---7---7-7---7-7---7-7---7-7---7---7-7---7-----------------
E-|-------------------------------------------------------------------------
                                                                            
  
                                                                            
  
E-|-------------------------------------------------------------------------
B-|-------------------------------------------------------------------------
G-|-------------------------------------------------------------------------
D-|---9-----9-----7---7-----7----9------------------------------------------
A-|-7---7-7---7-7---7---7-7---7--9------------------------------------------
E-|------------------------------7------------------------------------------
                                 (end on B)                                 
            
                                                                            
  
Here's the verse play this part twice
E-|-------------------------------------------------------------------------
B-|-------------------------------------------------------------------------
G-|-9-------------11--------------------------------------------------------
D-|-9--6-6-7-7-9--11--6-6-7-7-9--9--6-6-7-7-9--7-6-6-7-7-9------------------
A-|-7-------------9--------------9-------------7----------------------------
E-|------------------------------7-------------5----------------------------
                                                                            
  
here's the chorus                                                           
                   
E-|-------------------------------------------------------------------------
B-|-------------------------------------------------------------------------
G-|-9-----------------------------------------------------------------------
D-|-9-9-7-2-----------------------------------------------------------------
A-|-7-9-7-2-----------------------------------------------------------------
E-|---7-5-0-----------------------------------------------------------------
                                                                            
  
 
 

This email was written by Mushroom Head, Blink's un-official
May the force be with you...





Comments


Popular Blink tabs & chords
Aliens Exist 1 Tabs
Down Tabs
Enthused Tabs
Feeing This Tabs
Feeling This 1 Tabs
Go 1 Tabs
Go 100% Tabs
Heres Your Letter 2 Tabs
What Went Wrong Tabs
Whats My Age Again Tabs


Song lyrics



↑ Back to top | Tablatures and chords are parodies/interpretations of the original songs. You may use it for private study, scholarship, research or language learning purposes only
© 2014 AZChords.com Contact us | Privacy policy | DMCA | Add/correct tabs | Request tabs | Top 50 tabs