» » »

Blink, The Rock Show Tabs (ver.2)

Artists:  A B C D E F G H I J K L M N O P Q R S T U V W X Y Z # 

The Rock Show Tabs (ver.2)

Blink Tabs
Rating:
0/5 (0 votes)
Hard to play? Try these video lessons and learn fast.
                Intro  x2    w/ Distortion 
---------------------------------------------||
---------------------------------------------||
---------------------------------------------||
---------2---0-----------------2---0---2-----||
---0-0-0---0---4-0-0-0---0-0-0---0---4---4-4-||
---------------------------------------------||

Pre Verse
    PM--------------------------|       
|---------------------------------||
|---------------------------------||
|---------------------------------||
|-7-7-7-7-7-7-7-7-7-7-7-7-7-7-7-7-||
|-7-7-7-7-7-7-7-7-7-7-7-7-7-7-7-7-||
|-5-5-5-5-5-5-5-5-5-5-5-5-5-5-5-5-||

Verse x2
     PM------------------------|   PM--------|   PM--------|
|--------------------------------------------------------------||
|--------------------------------------------------------------||
|---------------------------------7-7-7-7-7-7-7-9-9-9-9-9-9-9--||
|--7-7-7-7-7-7-7-7-7-7-7-7-7-7-7--7-7-7-7-7-7-7-9-9-9-9-9-9-9--||
|--7-7-7-7-7-7-7-7-7-7-7-7-7-7-7--5-5-5-5-5-5-5-7-7-7-7-7-7-7--||
|--5-5-5-5-5-5-5-5-5-5-5-5-5-5-5-------------------------------||

Second Verse(Let Chord Ring)
|------||
|------||
|------||                                                    
|-7----||
|-7----||
|-5----||


Chorus Part 1 x3
|----------------||
|----------------||
|-------------7-7||
|-7-7-7-7-4-4-7-7||
|-7-7-7-7-4-4-5-5||
|-5-5-5-5-2-2----||

Chorus Part 2 
    PM----------------------------------------------------------|
|-------------------------------|---------------------------------|
|-------------------------------|---------------------------------|
|-4-4-4-4-4-4-4-7-7-7-7-7-7-7-7-|-4-4-4-4-4-4-4-4-7-7-7-7-7-7-7-7-|
|-4-4-4-4-4-4-4-7-7-7-7-7-7-7-7-|-4-4-4-4-4-4-4-4-7-7-7-7-7-7-7-7-|
|-2-2-2-2-2-2-2-5-5-5-5-5-5-5-5-|-2-2-2-2-2-2-2-2-5-5-5-5-5-5-5-5-|
|-------------------------------|---------------------------------|


  PM------------|
|--------------------------||
|--------------------------||
|-4-4-4-4-4-4-4-4-7--6-----||
|-4-4-4-4-4-4-4-4-7--6-----||
|-2-2-2-2-2-2-2-2-5--4-----||
|--------------------------||

Interlude
w/o distortion                  4x
|----------------------------------||
|--2----2---3-----2----2---3-------||
|----2----2---2-----2----2---2-----||
|----------------------------------||
|----------------------------------||
|----------------------------------||
Order:
Intro x2
Pre-Verse x1
Verse x2
Intro x2
Verse 2 x1
Chorus Part 1 x3
Chorus Part 2 x1
Intro x2
Verse x2
Chorus Part 1 x3
Chorus Part 2 x1
Interlude x4
Chorus Part 1 x3
Chorus Part 2
Intro x8(Fade Out)
            

comments powered by Disqus
↑ Back to top | Blink Tabs for The Rock Show. Lyrics for acoustic guitar and electric guitar. Tablatures and chords are parodies/interpretations of the original songs. You may use it for private study, scholarship, research or language learning purposes only