>
 >
The Rock Show

The Rock Show Guitar Tabs

Blink - The Rock Show chords, tabs, tablatures, lyrics

Guitar lessons | Add/correct | Request | Top 50 tabs Artists:  A B C D E F G H I J K L M N O P Q R S T U V W X Y Z 0-9

The Rock Show Guitar Tabs – Blink

CD, Sheet music, Poster

Do you like The Rock Show? Share with your friends now
TabsTabs v2

All Guitars Standard tuning


Intro
Guitar 1
e----------|----------|----------|----------||
b----------|----------|----------|---------o||
g----------|----------|----------|----------||
d-----2----|-0--------|-0---2----|-0----2---||
a-0-00--00-|---004050-|-0-00--00-|---004-40o||
E----------|----------|----------|----------||
Guitar 2			      ||
e----------|----------|----------|----------||
b----------|----------|----------|---------o||
g----------|----------|----------|----------||
d----------|----------|-7-777-7--|-9-9-9999-||
a-7-777-7--|-777777-7-|-5-555-5--|-7-7-7777o||
E-5-555-5--|-555555-5-|----------|----------||

Pre Verse
Guitar 1
e-----------------|-----------------||
b-----------------|-----------------||
g-----------------|-----------------||
d-----------------|-----------------||
a-----------------|-----------------||
E-5-5-5-5-5-5-5-5-|-5-5-5-5-5-5-5-5-||
PM. . . . . . . .   . . . . . . . . 


Verse
Guitar 1
e-----------------|-----------------|-----------------|-----------------||
b-----------------|-----------------|-----------------|----------------o||
g-----------------|-----------------|-----------------|-----------------||
d-----------------|-----------------|-7---------------|-9---------------||
a-7---------------|-----------------|-5---5-5-5-5-5-5-|-7---7-7-7-7-7-0o||
E-5---5-5-5-5-5-5-|-5-5-5-5-5-5-5-0-|-----------------|-----------------||
PM    . . . . . .   . . . . . . . .       . . . . . .       . . . . . .


*Repeat Intro*

Verse
Bass Arranged For Guitar
e-----------------|-----------------|-----------------|-----------------||
b-----------------|-----------------|-----------------|-----------------||
g-----------------|-----------------|-----------------|-----------------||
d-----------------|-----------------|-----------------|-----------------||
a-0-0-0-0-0-0-0-0-|-0-0-0-0-0-0-0-0-|-5-5-5-5-5-5-5-5-|-7-7-7-7-7-7-7-7-||
E-----------------|-----------------|-----------------|-----------------||


Chorus
Guitar 1
e-----------------|-----------------|-----------------|-----------------|
b-----------------|-----------------|-----------------|-----------------|
g-----------------|------x-7--7-x---|-----------------|------x-7--7-x---|
d-7--7--7--7\4----|-4--4-x-7--7-x---|-7--7--7--7\4----|-4--4-x-7--7-x---|
a-7--7--7--7\4----|-4--4-x-5--5-x---|-7--7--7--7\4----|-4--4-x-5--5-x---|
E-5--5--5--5\2----|-2--2------------|-5--5--5--5\2----|-2--2------------|

e-----------------|-----------------|-----------------|-----------------|
b-----------------|-----------------|-----------------|-----------------|
g-----------------|------x-7--7-x---|-----------------|-----------------|
d-7--7--7--7\4----|-4--4-x-7--7-x---|-----------------|-7-7-7-7-7-7-7-7-|
a-7--7--7--7\4----|-4--4-x-5--5-x---|-2---------------|-5-5-5-5-5-5-5-5-|
E-5--5--5--5\2----|-2--2------------|-0---0-0-0-0-0-0-|-----------------|
PM                                        . . . . . .   . . . . . . . .

e-----------------|-----------------|-----------------|----------------||
b-----------------|-----------------|-----------------|----------------||
g-----------------|-----------------|-----------------|----------------||
d-9-9-9-9-9-9-9-9-|-7-7-7-7-7-7-7---|-9-9-----9-9-----|-7-------7------||
a-7-7-7-7-7-7-7-7-|-5-5-5-5-5-5-5-0-|-7-7-----7-7-----|-5-------4------||
E-----------------|-----------------|-----000-----000-|----------------||
PM. . . . . . . .   . . . . . . ..    . . ... . . ...


*Repeat Intro*

*Repeat Verse*

*Repeat Chorus*

Bridge
Guitar 1
  F#m                                Dmaj7
e-----------------|-----------------|-----------------|-----------------|
b-2---------------|-2-------3-------|-2---------------|-2-------3-------|
g-----2-----------|-----2-------2---|-----2-----------|-----2-------2---|
d-----------------|-----------------|-----------------|-----------------|
a-----------------|-----------------|-----------------|-----------------|
E-----------------|-----------------|-----------------|-----------------|
  A                                   A/E 
e-----------------|-----------------|-----------------|-----------------|
b-2---------------|-2-------3-------|-2---------------|-2-------3-------|
g-----2-----------|-----2-------2---|-----2-----------|-----2-------2---|
d-----------------|-----------------|-----------------|-----------------|
a-----------------|-----------------|-----------------|-----------------|
E-----------------|-----------------|-----------------|-----------------|
  F#m                                 Dmaj7
e-2---2---2-2-2-2-|-2---2---2-2-2-2-|-2---2---2-2-2-2-|-2---2---2-2-2-2-|
b-2---2---2-2-2-2-|-2---2---2-2-2-2-|-2---2---2-2-2-2-|-2---2---2-2-2-2-|
g-2---2---2-2-2-2-|-2---2---2-2-2-2-|-2---2---2-2-2-2-|-2---2---2-2-2-2-|
d-4---4---4-4-4-4-|-4---4---4-4-4-4-|-0---0---0-0-0-0-|-0---0---0-0-0-0-|
a-4---4---4-4-4-4-|-4---4---4-4-4-4-|-----------------|-----------------|
E-2---2---2-2-2-2-|-2---2---2-2-2-2-|-----------------|-----------------|
  A                                   E5                D5
e-----------------|-----------------|-----------------|-----------------||
b-----------------|-----------------|-----------------|-----------------||
g-2---2---2---2---|-2-2-2---2-2-2-2-|-----------------|-7---7-7-7-7-7---||
d-2---2---2---2---|-2-2-2---2-2-2-2-|-----------------|-7---7-7-7-7-7---||
a-0---0---0---0---|-0-0-0---0-0-0-0-|-2---2---2-2-2---|-5---5-5-5-5-5---||
E-----------------|-----------------|-0---0---0-0-0---|-----------------||

*Repeat Chorus*

*Repeat Intro*

Outro (With Intro)

Keyboard arranged for guitar
e-9------9-|-12-10--9-|----------|-12-10--9-|
b---10-----|----------|-10-------|----------|
g------9---|----------|----------|----------|
d----------|----------|----------|----------|
a----------|----------|----------|----------|
E----------|----------|----------|----------|

Fade Out

By John Black





Comments


Popular Blink tabs & chords
Adams Song 1 Tabs
Aliens Exist 2 Tabs
Always 2 Tabs
Anthem Part Two 2 Tabs
Dammit Tabs
Dick Lips Tabs
Dysentery Gary Tabs
M+Ms 1 Tabs
The Party Song Tabs
Violence Tabs


Song lyrics



↑ Back to top | Tablatures and chords are parodies/interpretations of the original songs. You may use it for private study, scholarship, research or language learning purposes only
© 2014 AZChords.com Contact us | Privacy policy | DMCA | Add/correct tabs | Request tabs | Top 50 tabs