» » »

Blink, The Girl Next Door Tabs (ver.1)

Artists:  A B C D E F G H I J K L M N O P Q R S T U V W X Y Z # 

The Girl Next Door Tabs (ver.1)

Blink Tabs
 Rating:
4/5 (4 votes)
The Girl Next Door lessons Tabs too difficult? Try these video lessons and learn fast
                
E||--------------------------------------------------------------------||
B||--------------------------------------------------------------------||
G||-----------------------------------4-4-4-4-4-4-4-4-4-4-4-4-4-4-4-4--||
D||--5-5-5-5-5-5-5-5-5-5-5-5-5-5-5-5--4-4-4-4-4-4-4-4-4-4-4-4-4-4-4-4--||
A||--5-5-5-5-5-5-5-5-5-5-5-5-5-5-5-5--2-2-2-2-2-2-2-2-2-2-2-2-2-2-2-2--||
E||--3-3-3-3-3-3-3-3-3-3-3-3-3-3-3-3-----------------------------------||

E||--------------------------------------------------------------------||
B||--------------------------------------------------------------------||
G||-----------------------------------5-5-5-5-5-5-5-5-5-5-5-5-5-5-5-5--||
D||--2-2-2-2-2-2-2-2-2-2-2-2-2-2-2-2--5-5-5-5-5-5-5-5-5-5-5-5-5-5-5-5--||
A||--2-2-2-2-2-2-2-2-2-2-2-2-2-2-2-2--3-3-3-3-3-3-3-3-3-3-3-3-3-3-3-3--||
E||--0-0-0-0-0-0-0-0-0-0-0-0-0-0-0-0-----------------------------------||

Riff  : 2X

E||--------------------------------------------------------||
B||--------------------------------------------------------||
G||--------------------------------------------------------||
D||--------------------------------------------------------||
A||----0-2-3-2-0---0-5-5-5-5-5-5-5-5-5-5----0-2-3-2-0---0--||
E||--3-----------3------------------------0-----------3----||

e||-----------------------||
B||-----------------------||
G||-----------------------||
D||-----------------------||
A||--5-5-5-5-5-5-5-5-5-5--||
E||-----------------------||

Riff 1 : 2X

e||--------------------------------------------------------------------||
B||--------------------------------------------------------------------||
G||-----------------------------------4-4-4-4-4-4-4-4-4-4-4-4-4-4-4-4--||
D||--5-5-5-5-5-5-5-5-5-5-5-5-5-5-5-5--4-4-4-4-4-4-4-4-4-4-4-4-4-4-4-4--||
A||--5-5-5-5-5-5-5-5-5-5-5-5-5-5-5-5--2-2-2-2-2-2-2-2-2-2-2-2-2-2-2-2--||
E||--3-3-3-3-3-3-3-3-3-3-3-3-3-3-3-3-----------------------------------||
                                     
E||-------------------------------------------------------------------||
B||-------------------------------------------------------------------||
G||-----------------------------------x-x--5--x-x--5--x-x--5--x-x--5--||
D||--2-2-2-2-2-2-2-2-2-2-2-2-2-2-2-2--x-x--5--x-x--5--x-x--5--x-x--5--||
A||--2-2-2-2-2-2-2-2-2-2-2-2-2-2-2-2--x-x--3--x-x--3--x-x--3--x-x--3--||
E||--0-0-0-0-0-0-0-0-0-0-0-0-0-0-0-0----------------------------------||

Coro : 4X

E||---------------------------------------------------------------------||
B||---------------------------------------------------------------------||
G||-------------------4-4-4-4-4-4-4-4-------------------5-5-5-5-5-5-5-5-||
D||--5-5-5-5-5-5-5-5--4-4-4-4-4-4-4-4--2-2-2-2-2-2-2-2--5-5-5-5-5-5-5-5-||
A||--5-5-5-5-5-5-5-5--2-2-2-2-2-2-2-2--2-2-2-2-2-2-2-2--3-3-3-3-3-3-3-3-||
E||--3-3-3-3-3-3-3-3-------------------0-0-0-0-0-0-0-0------------------||

Riff 1 : 1X

E||---------------------------------------------------------------------||
B||---------------------------------------------------------------------||
G||------------------------------------4--4-4-4-4-4-4-4-4-4-4-4-4-4-4-4-||
D||--5--5-5-5-5-5-5-5-5-5-5-5-5-5-5-5--4--4-4-4-4-4-4-4-4-4-4-4-4-4-4-4-||
A||--5--5-5-5-5-5-5-5-5-5-5-5-5-5-5-5--2--2-2-2-2-2-2-2-2-2-2-2-2-2-2-2-||
E||--3--3-3-3-3-3-3-3-3-3-3-3-3-3-3-3-----------------------------------||
 
E||--------------------------------------------------------------------||
B||--------------------------------------------------------------------||
G||------------------------------------x-x--5--x-x--5--x-x--5--x-x--5--||
D||--2--2-2-2-2-2-2-2-2-2-2-2-2-2-2-2--x-x--5--x-x--5--x-x--5--x-x--5--||
A||--2--2-2-2-2-2-2-2-2-2-2-2-2-2-2-2--x-x--3--x-x--3--x-x--3--x-x--3--||
E||--0--0-0-0-0-0-0-0-0-0-0-0-0-0-0-0----------------------------------||

End :

E||-------------||
B||-------------||
G||-------------||
D||----------5--||
A||--3-3-2-0-5--||
E||----------3--||
            
Submit corrections

comments powered by Disqus
↑ Back to top | Blink Tabs for The Girl Next Door. Lyrics for acoustic guitar and electric guitar. Tablatures and chords are parodies/interpretations of the original songs. You may use it for private study, scholarship, research or language learning purposes only